  0
SECTION
  2
HEADER
  9
$ACADVER
  1
AC1018
  9
$ACADMAINTVER
 70
     0
  9
$DWGCODEPAGE
  3
ANSI_1252
  9
$TITLE
  1

  9
$SUBJECT
  1

  9
$AUTHOR
  1

  9
$KEYWORDS
  1

  9
$COMMENTS
  1

  9
$LASTSAVEDBY
  1
Studio Cisotti Laube
  9
$REVISIONNUMBER
  1

  9
$INSBASE
 10
0.0
 20
0.0
 30
0.0
  9
$EXTMIN
 10
-216.0474319856553
 20
-216.0474332580386
 30
0.0
  9
$EXTMAX
 10
1118.28656043515
 20
1243.848411246984
 30
0.0
  9
$LIMMIN
 10
0.0
 20
0.0
  9
$LIMMAX
 10
12.0
 20
9.0
  9
$ORTHOMODE
 70
     0
  9
$REGENMODE
 70
     1
  9
$FILLMODE
 70
     1
  9
$QTEXTMODE
 70
     0
  9
$MIRRTEXT
 70
     1
  9
$LTSCALE
 40
1.0
  9
$ATTMODE
 70
     1
  9
$TEXTSIZE
 40
0.2
  9
$TRACEWID
 40
0.05
  9
$TEXTSTYLE
  7
Standard
  9
$CLAYER
  8
BLOCCO_stool_8500-00--2D
  9
$CELTYPE
  6
ByLayer
  9
$CECOLOR
 62
   256
  9
$CELTSCALE
 40
1.0
  9
$DISPSILH
 70
     0
  9
$DIMSCALE
 40
1.0
  9
$DIMASZ
 40
0.18
  9
$DIMEXO
 40
0.0625
  9
$DIMDLI
 40
0.38
  9
$DIMRND
 40
0.0
  9
$DIMDLE
 40
0.0
  9
$DIMEXE
 40
0.18
  9
$DIMTP
 40
0.0
  9
$DIMTM
 40
0.0
  9
$DIMTXT
 40
0.18
  9
$DIMCEN
 40
0.09
  9
$DIMTSZ
 40
0.0
  9
$DIMTOL
 70
     0
  9
$DIMLIM
 70
     0
  9
$DIMTIH
 70
     1
  9
$DIMTOH
 70
     1
  9
$DIMSE1
 70
     0
  9
$DIMSE2
 70
     0
  9
$DIMTAD
 70
     0
  9
$DIMZIN
 70
     0
  9
$DIMBLK
  1

  9
$DIMASO
 70
     1
  9
$DIMSHO
 70
     1
  9
$DIMPOST
  1

  9
$DIMAPOST
  1

  9
$DIMALT
 70
     0
  9
$DIMALTD
 70
     2
  9
$DIMALTF
 40
25.4
  9
$DIMLFAC
 40
1.0
  9
$DIMTOFL
 70
     0
  9
$DIMTVP
 40
0.0
  9
$DIMTIX
 70
     0
  9
$DIMSOXD
 70
     0
  9
$DIMSAH
 70
     0
  9
$DIMBLK1
  1

  9
$DIMBLK2
  1

  9
$DIMSTYLE
  2
Standard
  9
$DIMCLRD
 70
     0
  9
$DIMCLRE
 70
     0
  9
$DIMCLRT
 70
     0
  9
$DIMTFAC
 40
1.0
  9
$DIMGAP
 40
0.09
  9
$DIMJUST
 70
     0
  9
$DIMSD1
 70
     0
  9
$DIMSD2
 70
     0
  9
$DIMTOLJ
 70
     1
  9
$DIMTZIN
 70
     0
  9
$DIMALTZ
 70
     0
  9
$DIMALTTZ
 70
     0
  9
$DIMUPT
 70
     0
  9
$DIMDEC
 70
     4
  9
$DIMTDEC
 70
     4
  9
$DIMALTU
 70
     2
  9
$DIMALTTD
 70
     2
  9
$DIMTXSTY
  7
Standard
  9
$DIMAUNIT
 70
     0
  9
$DIMADEC
 70
     0
  9
$DIMALTRND
 40
0.0
  9
$DIMAZIN
 70
     0
  9
$DIMDSEP
 70
    46
  9
$DIMATFIT
 70
     3
  9
$DIMFRAC
 70
     0
  9
$DIMLDRBLK
  1

  9
$DIMLUNIT
 70
     2
  9
$DIMLWD
 70
    -2
  9
$DIMLWE
 70
    -2
  9
$DIMTMOVE
 70
     2
  9
$LUNITS
 70
     2
  9
$LUPREC
 70
     3
  9
$SKETCHINC
 40
0.1
  9
$FILLETRAD
 40
0.5
  9
$AUNITS
 70
     0
  9
$AUPREC
 70
     0
  9
$MENU
  1
.
  9
$ELEVATION
 40
0.0
  9
$PELEVATION
 40
0.0
  9
$THICKNESS
 40
0.0
  9
$LIMCHECK
 70
     0
  9
$CHAMFERA
 40
0.5
  9
$CHAMFERB
 40
0.5
  9
$CHAMFERC
 40
1.0
  9
$CHAMFERD
 40
0.0
  9
$SKPOLY
 70
     0
  9
$TDCREATE
 40
2456371.665066204
  9
$TDUCREATE
 40
2456371.623399537
  9
$TDUPDATE
 40
2456372.714754827
  9
$TDUUPDATE
 40
2456372.673088160
  9
$TDINDWG
 40
0.0003057986
  9
$TDUSRTIMER
 40
0.0003057986
  9
$USRTIMER
 70
     1
  9
$ANGBASE
 50
0.0
  9
$ANGDIR
 70
     0
  9
$PDMODE
 70
     0
  9
$PDSIZE
 40
0.0
  9
$PLINEWID
 40
0.0
  9
$SPLFRAME
 70
     0
  9
$SPLINETYPE
 70
     6
  9
$SPLINESEGS
 70
     8
  9
$HANDSEED
  5
127
  9
$SURFTAB1
 70
     6
  9
$SURFTAB2
 70
     6
  9
$SURFTYPE
 70
     6
  9
$SURFU
 70
     6
  9
$SURFV
 70
     6
  9
$UCSBASE
  2

  9
$UCSNAME
  2

  9
$UCSORG
 10
0.0
 20
0.0
 30
0.0
  9
$UCSXDIR
 10
1.0
 20
0.0
 30
0.0
  9
$UCSYDIR
 10
0.0
 20
1.0
 30
0.0
  9
$UCSORTHOREF
  2

  9
$UCSORTHOVIEW
 70
     0
  9
$UCSORGTOP
 10
0.0
 20
0.0
 30
0.0
  9
$UCSORGBOTTOM
 10
0.0
 20
0.0
 30
0.0
  9
$UCSORGLEFT
 10
0.0
 20
0.0
 30
0.0
  9
$UCSORGRIGHT
 10
0.0
 20
0.0
 30
0.0
  9
$UCSORGFRONT
 10
0.0
 20
0.0
 30
0.0
  9
$UCSORGBACK
 10
0.0
 20
0.0
 30
0.0
  9
$PUCSBASE
  2

  9
$PUCSNAME
  2

  9
$PUCSORG
 10
0.0
 20
0.0
 30
0.0
  9
$PUCSXDIR
 10
1.0
 20
0.0
 30
0.0
  9
$PUCSYDIR
 10
0.0
 20
1.0
 30
0.0
  9
$PUCSORTHOREF
  2

  9
$PUCSORTHOVIEW
 70
     0
  9
$PUCSORGTOP
 10
0.0
 20
0.0
 30
0.0
  9
$PUCSORGBOTTOM
 10
0.0
 20
0.0
 30
0.0
  9
$PUCSORGLEFT
 10
0.0
 20
0.0
 30
0.0
  9
$PUCSORGRIGHT
 10
0.0
 20
0.0
 30
0.0
  9
$PUCSORGFRONT
 10
0.0
 20
0.0
 30
0.0
  9
$PUCSORGBACK
 10
0.0
 20
0.0
 30
0.0
  9
$USERI1
 70
     0
  9
$USERI2
 70
     0
  9
$USERI3
 70
     0
  9
$USERI4
 70
     0
  9
$USERI5
 70
     0
  9
$USERR1
 40
0.0
  9
$USERR2
 40
0.0
  9
$USERR3
 40
0.0
  9
$USERR4
 40
0.0
  9
$USERR5
 40
0.0
  9
$WORLDVIEW
 70
     1
  9
$SHADEDGE
 70
     3
  9
$SHADEDIF
 70
    70
  9
$TILEMODE
 70
     1
  9
$MAXACTVP
 70
    64
  9
$PINSBASE
 10
0.0
 20
0.0
 30
0.0
  9
$PLIMCHECK
 70
     0
  9
$PEXTMIN
 10
1.000000000000000E+20
 20
1.000000000000000E+20
 30
1.000000000000000E+20
  9
$PEXTMAX
 10
-1.000000000000000E+20
 20
-1.000000000000000E+20
 30
-1.000000000000000E+20
  9
$PLIMMIN
 10
0.0
 20
0.0
  9
$PLIMMAX
 10
12.0
 20
9.0
  9
$UNITMODE
 70
     0
  9
$VISRETAIN
 70
     1
  9
$PLINEGEN
 70
     0
  9
$PSLTSCALE
 70
     1
  9
$TREEDEPTH
 70
  3020
  9
$CMLSTYLE
  2
Standard
  9
$CMLJUST
 70
     0
  9
$CMLSCALE
 40
1.0
  9
$PROXYGRAPHICS
 70
     1
  9
$MEASUREMENT
 70
     0
  9
$CELWEIGHT
370
    -1
  9
$ENDCAPS
280
     0
  9
$JOINSTYLE
280
     0
  9
$LWDISPLAY
290
     0
  9
$INSUNITS
 70
     4
  9
$HYPERLINKBASE
  1

  9
$STYLESHEET
  1

  9
$XEDIT
290
     1
  9
$CEPSNTYPE
380
     0
  9
$PSTYLEMODE
290
     1
  9
$FINGERPRINTGUID
  2
{D72A6922-63CD-4DC6-823E-FB90B5534BAF}
  9
$VERSIONGUID
  2
{FAEB1C32-E019-11D5-929B-00C0DF256EC4}
  9
$EXTNAMES
290
     1
  9
$PSVPSCALE
 40
0.0
  9
$OLESTARTUP
290
     0
  9
$SORTENTS
280
   127
  9
$INDEXCTL
280
     0
  9
$HIDETEXT
280
     1
  9
$XCLIPFRAME
290
     0
  9
$HALOGAP
280
     0
  9
$OBSCOLOR
 70
   257
  9
$OBSLTYPE
280
     0
  9
$INTERSECTIONDISPLAY
280
     0
  9
$INTERSECTIONCOLOR
 70
   257
  9
$DIMASSOC
280
     2
  9
$PROJECTNAME
  1

  0
ENDSEC
  0
SECTION
  2
CLASSES
  0
CLASS
  1
ACDBDICTIONARYWDFLT
  2
AcDbDictionaryWithDefault
  3
ObjectDBX Classes
 90
        0
 91
        1
280
     0
281
     0
  0
CLASS
  1
VISUALSTYLE
  2
AcDbVisualStyle
  3
ObjectDBX Classes
 90
     4095
 91
       16
280
     0
281
     0
  0
CLASS
  1
MATERIAL
  2
AcDbMaterial
  3
ObjectDBX Classes
 90
        0
 91
        3
280
     0
281
     0
  0
CLASS
  1
TABLESTYLE
  2
AcDbTableStyle
  3
ObjectDBX Classes
 90
     4095
 91
        1
280
     0
281
     0
  0
CLASS
  1
DICTIONARYVAR
  2
AcDbDictionaryVar
  3
ObjectDBX Classes
 90
        0
 91
        5
280
     0
281
     0
  0
CLASS
  1
ACDBPLACEHOLDER
  2
AcDbPlaceHolder
  3
ObjectDBX Classes
 90
        0
 91
        1
280
     0
281
     0
  0
CLASS
  1
LAYOUT
  2
AcDbLayout
  3
ObjectDBX Classes
 90
        0
 91
        3
280
     0
281
     0
  0
ENDSEC
  0
SECTION
  2
TABLES
  0
TABLE
  2
VPORT
  5
8
102
{ACAD_XDICTIONARY
360
109
102
}
330
0
100
AcDbSymbolTable
 70
     2
  0
VPORT
  5
126
330
8
100
AcDbSymbolTableRecord
100
AcDbViewportTableRecord
  2
*Active
 70
     0
 10
0.0
 20
0.0
 11
1.0
 21
1.0
 12
1231.950838263757
 22
517.7282137032573
 13
0.0
 23
0.0
 14
0.5
 24
0.5
 15
0.5
 25
0.5
 16
0.0
 26
0.0
 36
1.0
 17
0.0
 27
0.0
 37
0.0
 40
1496.847335982169
 41
1.95268817204301
 42
50.0
 43
0.0
 44
0.0
 50
0.0
 51
0.0
 71
     0
 72
   100
 73
     1
 74
     3
 75
     0
 76
     0
 77
     0
 78
     0
281
     0
 65
     1
110
0.0
120
0.0
130
0.0
111
1.0
121
0.0
131
0.0
112
0.0
122
1.0
132
0.0
 79
     0
146
0.0
  0
ENDTAB
  0
TABLE
  2
LTYPE
  5
5
330
0
100
AcDbSymbolTable
 70
     1
  0
LTYPE
  5
14
330
5
100
AcDbSymbolTableRecord
100
AcDbLinetypeTableRecord
  2
ByBlock
 70
     0
  3

 72
    65
 73
     0
 40
0.0
  0
LTYPE
  5
15
330
5
100
AcDbSymbolTableRecord
100
AcDbLinetypeTableRecord
  2
ByLayer
 70
     0
  3

 72
    65
 73
     0
 40
0.0
  0
LTYPE
  5
16
330
5
100
AcDbSymbolTableRecord
100
AcDbLinetypeTableRecord
  2
Continuous
 70
     0
  3
Solid line
 72
    65
 73
     0
 40
0.0
  0
ENDTAB
  0
TABLE
  2
LAYER
  5
2
330
0
100
AcDbSymbolTable
 70
     2
  0
LAYER
  5
10
102
{ACAD_XDICTIONARY
360
10B
102
}
330
2
100
AcDbSymbolTableRecord
100
AcDbLayerTableRecord
  2
0
 70
     0
 62
     7
  6
Continuous
370
    -3
390
F
  0
LAYER
  5
3B
102
{ACAD_XDICTIONARY
360
113
102
}
330
2
100
AcDbSymbolTableRecord
100
AcDbLayerTableRecord
  2
BLOCCO_stool_8500-00--2D
 70
     0
 62
     7
  6
Continuous
370
    -3
390
F
  0
ENDTAB
  0
TABLE
  2
STYLE
  5
3
330
0
100
AcDbSymbolTable
 70
     1
  0
STYLE
  5
11
330
3
100
AcDbSymbolTableRecord
100
AcDbTextStyleTableRecord
  2
Standard
 70
     0
 40
0.0
 41
1.0
 50
0.0
 71
     0
 42
0.2
  3
txt
  4

  0
ENDTAB
  0
TABLE
  2
VIEW
  5
6
330
0
100
AcDbSymbolTable
 70
     0
  0
ENDTAB
  0
TABLE
  2
UCS
  5
7
330
0
100
AcDbSymbolTable
 70
     0
  0
ENDTAB
  0
TABLE
  2
APPID
  5
9
330
0
100
AcDbSymbolTable
 70
     1
  0
APPID
  5
12
330
9
100
AcDbSymbolTableRecord
100
AcDbRegAppTableRecord
  2
ACAD
 70
     0
  0
ENDTAB
  0
TABLE
  2
DIMSTYLE
  5
A
330
0
100
AcDbSymbolTable
 70
     1
100
AcDbDimStyleTable
 71
     0
  0
DIMSTYLE
105
27
330
A
100
AcDbSymbolTableRecord
100
AcDbDimStyleTableRecord
  2
Standard
 70
     0
340
11
  0
ENDTAB
  0
TABLE
  2
BLOCK_RECORD
  5
1
330
0
100
AcDbSymbolTable
 70
     1
  0
BLOCK_RECORD
  5
1F
330
1
100
AcDbSymbolTableRecord
100
AcDbBlockTableRecord
  2
*Model_Space
340
22
  0
BLOCK_RECORD
  5
1B
330
1
100
AcDbSymbolTableRecord
100
AcDbBlockTableRecord
  2
*Paper_Space
340
1E
  0
BLOCK_RECORD
  5
23
330
1
100
AcDbSymbolTableRecord
100
AcDbBlockTableRecord
  2
*Paper_Space0
340
26
  0
ENDTAB
  0
ENDSEC
  0
SECTION
  2
BLOCKS
  0
BLOCK
  5
20
330
1F
100
AcDbEntity
  8
0
100
AcDbBlockBegin
  2
*Model_Space
 70
     0
 10
0.0
 20
0.0
 30
0.0
  3
*Model_Space
  1

  0
ENDBLK
  5
21
330
1F
100
AcDbEntity
  8
0
100
AcDbBlockEnd
  0
BLOCK
  5
1C
330
1B
100
AcDbEntity
 67
     1
  8
0
100
AcDbBlockBegin
  2
*Paper_Space
 70
     0
 10
0.0
 20
0.0
 30
0.0
  3
*Paper_Space
  1

  0
ENDBLK
  5
1D
330
1B
100
AcDbEntity
 67
     1
  8
0
100
AcDbBlockEnd
  0
BLOCK
  5
24
330
23
100
AcDbEntity
  8
0
100
AcDbBlockBegin
  2
*Paper_Space0
 70
     0
 10
0.0
 20
0.0
 30
0.0
  3
*Paper_Space0
  1

  0
ENDBLK
  5
25
330
23
100
AcDbEntity
  8
0
100
AcDbBlockEnd
  0
ENDSEC
  0
SECTION
  2
ENTITIES
  0
SPLINE
  5
3C
330
1F
100
AcDbEntity
  8
BLOCCO_stool_8500-00--2D
100
AcDbSpline
210
0.0
220
0.0
230
1.0
 70
    24
 71
     2
 72
     6
 73
     3
 74
     0
 42
0.0000000001
 43
0.0000000001
 40
0.0
 40
0.0
 40
0.0
 40
64.01845724540348
 40
64.01845724540348
 40
64.01845724540348
 10
130.761825553559
 20
-109.5486440162192
 30
0.0
 10
153.3957681732218
 20
-132.182586635882
 30
0.0
 10
176.0297107928845
 20
-154.8165292555447
 30
0.0
  0
SPLINE
  5
3D
330
1F
100
AcDbEntity
  8
BLOCCO_stool_8500-00--2D
100
AcDbSpline
210
0.0
220
0.0
230
1.0
 70
     8
 71
     5
 72
    12
 73
     6
 74
     0
 42
0.0000000001
 43
0.0000000001
 40
-1.0
 40
-1.0
 40
-1.0
 40
-1.0
 40
-1.0
 40
-1.0
 40
0.0
 40
0.0
 40
0.0
 40
0.0
 40
0.0
 40
0.0
 10
176.0297107928845
 20
-154.8165292555447
 30
0.0
 10
176.1422668459609
 20
-154.9290853086211
 30
0.0
 10
176.2548228990372
 20
-155.0416413616974
 30
0.0
 10
176.3457057402156
 20
-155.1778424698875
 30
0.0
 10
176.4338696905079
 20
-155.3107947414198
 30
0.0
 10
176.5128681668975
 20
-155.4489865316834
 30
0.0
  0
SPLINE
  5
3E
330
1F
100
AcDbEntity
  8
BLOCCO_stool_8500-00--2D
100
AcDbSpline
210
0.0
220
0.0
230
1.0
 70
    12
 71
     2
 72
     6
 73
     3
 74
     0
 42
0.0000000001
 43
0.0000000001
 40
0.0
 40
0.0
 40
0.0
 40
3.695216059736189
 40
3.695216059736189
 40
3.695216059736189
 10
176.5128681668975
 20
-155.4489865316834
 30
0.0
 41
1.0
 10
177.5665270977009
 20
-157.2921488384664
 30
0.0
 41
0.8162715057217621
 10
176.1787449553121
 20
-158.8988587777337
 30
0.0
 41
1.0
  0
SPLINE
  5
3F
330
1F
100
AcDbEntity
  8
BLOCCO_stool_8500-00--2D
100
AcDbSpline
210
0.0
220
0.0
230
1.0
 70
    12
 71
     2
 72
     6
 73
     3
 74
     0
 42
0.0000000001
 43
0.0000000001
 40
0.0
 40
0.0
 40
0.0
 40
24.45917094162981
 40
24.45917094162981
 40
24.45917094162981
 10
176.1787449553121
 20
-158.8988587777337
 30
0.0
 41
1.0
 10
168.1703246515578
 20
-168.1703455165631
 30
0.0
 41
0.9973392809828759
 10
158.8988413014967
 20
-176.1787655500363
 30
0.0
 41
1.0
  0
SPLINE
  5
40
330
1F
100
AcDbEntity
  8
BLOCCO_stool_8500-00--2D
100
AcDbSpline
210
0.0
220
0.0
230
1.0
 70
    12
 71
     2
 72
     6
 73
     3
 74
     0
 42
0.0000000001
 43
0.0000000001
 40
0.0
 40
0.0
 40
0.0
 40
3.764253743239954
 40
3.764253743239954
 40
3.764253743239954
 10
158.8988413014967
 20
-176.1787655500363
 30
0.0
 41
1.0
 10
157.252607182257
 20
-177.6006948126192
 30
0.0
 41
0.8095706321443316
 10
155.3894362149694
 20
-176.4779466144162
 30
0.0
 41
1.0
  0
SPLINE
  5
41
330
1F
100
AcDbEntity
  8
BLOCCO_stool_8500-00--2D
100
AcDbSpline
210
0.0
220
0.0
230
1.0
 70
     8
 71
     5
 72
    12
 73
     6
 74
     0
 42
0.0000000001
 43
0.0000000001
 40
0.0
 40
0.0
 40
0.0
 40
0.0
 40
0.0
 40
0.0
 40
1.0
 40
1.0
 40
1.0
 40
1.0
 40
1.0
 40
1.0
 10
155.3894362149694
 20
-176.4779466144162
 30
0.0
 10
155.2648281540914
 20
-176.4028577050837
 30
0.0
 10
155.1447718518593
 20
-176.3202152725532
 30
0.0
 10
155.0222550376084
 20
-176.2354803714613
 30
0.0
 10
154.91938251178
 20
-176.1326078456329
 30
0.0
 10
154.8165099859516
 20
-176.0297353198045
 30
0.0
  0
SPLINE
  5
42
330
1F
100
AcDbEntity
  8
BLOCCO_stool_8500-00--2D
100
AcDbSpline
210
0.0
220
0.0
230
1.0
 70
    24
 71
     2
 72
     6
 73
     3
 74
     0
 42
0.0000000001
 43
0.0000000001
 40
-64.01854525763027
 40
-64.01854525763027
 40
-64.01854525763027
 40
0.0
 40
0.0
 40
0.0
 10
154.8165099859516
 20
-176.0297353198045
 30
0.0
 10
132.1825362492673
 20
-153.3957615831202
 30
0.0
 10
109.548562512583
 20
-130.7617878464359
 30
0.0
  0
SPLINE
  5
43
330
1F
100
AcDbEntity
  8
BLOCCO_stool_8500-00--2D
100
AcDbSpline
210
0.0
220
0.0
230
1.0
 70
    24
 71
     2
 72
     6
 73
     3
 74
     0
 42
0.0000000001
 43
0.0000000001
 40
0.0
 40
0.0
 40
0.0
 40
64.01845724540348
 40
64.01845724540348
 40
64.01845724540348
 10
-109.5486440162194
 20
-130.7618474518158
 30
0.0
 10
-132.1825866358822
 20
-153.3957900714787
 30
0.0
 10
-154.816529255545
 20
-176.0297326911416
 30
0.0
  0
SPLINE
  5
44
330
1F
100
AcDbEntity
  8
BLOCCO_stool_8500-00--2D
100
AcDbSpline
210
0.0
220
0.0
230
1.0
 70
     8
 71
     5
 72
    12
 73
     6
 74
     0
 42
0.0000000001
 43
0.0000000001
 40
-1.0
 40
-1.0
 40
-1.0
 40
-1.0
 40
-1.0
 40
-1.0
 40
0.0
 40
0.0
 40
0.0
 40
0.0
 40
0.0
 40
0.0
 10
-154.816529255545
 20
-176.0297326911416
 30
0.0
 10
-154.9290853086213
 20
-176.1422887442177
 30
0.0
 10
-155.0416413616976
 20
-176.2548447972938
 30
0.0
 10
-155.1778424698877
 20
-176.3457276384728
 30
0.0
 10
-155.31079474142
 20
-176.4338915887643
 30
0.0
 10
-155.4489865316836
 20
-176.5128900651541
 30
0.0
  0
SPLINE
  5
45
330
1F
100
AcDbEntity
  8
BLOCCO_stool_8500-00--2D
100
AcDbSpline
210
0.0
220
0.0
230
1.0
 70
    12
 71
     2
 72
     6
 73
     3
 74
     0
 42
0.0000000001
 43
0.0000000001
 40
0.0
 40
0.0
 40
0.0
 40
3.695216059736189
 40
3.695216059736189
 40
3.695216059736189
 10
-155.4489865316836
 20
-176.5128900651541
 30
0.0
 41
1.0
 10
-157.2921488384666
 20
-177.5665489959576
 30
0.0
 41
0.8162715057217621
 10
-158.8988587777339
 20
-176.1787668535692
 30
0.0
 41
1.0
  0
SPLINE
  5
46
330
1F
100
AcDbEntity
  8
BLOCCO_stool_8500-00--2D
100
AcDbSpline
210
0.0
220
0.0
230
1.0
 70
    12
 71
     2
 72
     6
 73
     3
 74
     0
 42
0.0000000001
 43
0.0000000001
 40
0.0
 40
0.0
 40
0.0
 40
24.45917094162981
 40
24.45917094162981
 40
24.45917094162981
 10
-158.8988587777339
 20
-176.1787668535692
 30
0.0
 41
1.0
 10
-168.1703455165635
 20
-168.1703465498151
 30
0.0
 41
0.9973392809828759
 10
-176.1787655500366
 20
-158.8988631997538
 30
0.0
 41
1.0
  0
SPLINE
  5
47
330
1F
100
AcDbEntity
  8
BLOCCO_stool_8500-00--2D
100
AcDbSpline
210
0.0
220
0.0
230
1.0
 70
    12
 71
     2
 72
     6
 73
     3
 74
     0
 42
0.0000000001
 43
0.0000000001
 40
0.0
 40
0.0
 40
0.0
 40
3.764253743239954
 40
3.764253743239954
 40
3.764253743239954
 10
-176.1787655500366
 20
-158.8988631997538
 30
0.0
 41
1.0
 10
-177.6006948126191
 20
-157.252629080514
 30
0.0
 41
0.8095706321443316
 10
-176.4779466144164
 20
-155.3894581132265
 30
0.0
 41
1.0
  0
SPLINE
  5
48
330
1F
100
AcDbEntity
  8
BLOCCO_stool_8500-00--2D
100
AcDbSpline
210
0.0
220
0.0
230
1.0
 70
     8
 71
     5
 72
    12
 73
     6
 74
     0
 42
0.0000000001
 43
0.0000000001
 40
0.0
 40
0.0
 40
0.0
 40
0.0
 40
0.0
 40
0.0
 40
1.0
 40
1.0
 40
1.0
 40
1.0
 40
1.0
 40
1.0
 10
-176.4779466144164
 20
-155.3894581132265
 30
0.0
 10
-176.402857705084
 20
-155.264850052348
 30
0.0
 10
-176.3202152725535
 20
-155.1447937501164
 30
0.0
 10
-176.2354803714615
 20
-155.0222769358647
 30
0.0
 10
-176.1326078456332
 20
-154.9194044100364
 30
0.0
 10
-176.0297353198048
 20
-154.8165318842082
 30
0.0
  0
SPLINE
  5
49
330
1F
100
AcDbEntity
  8
BLOCCO_stool_8500-00--2D
100
AcDbSpline
210
0.0
220
0.0
230
1.0
 70
    24
 71
     2
 72
     6
 73
     3
 74
     0
 42
0.0000000001
 43
0.0000000001
 40
-64.01854525763027
 40
-64.01854525763027
 40
-64.01854525763027
 40
0.0
 40
0.0
 40
0.0
 10
-176.0297353198048
 20
-154.8165318842082
 30
0.0
 10
-153.3957615831204
 20
-132.182558147524
 30
0.0
 10
-130.7617878464361
 20
-109.5485844108398
 30
0.0
  0
SPLINE
  5
4A
330
1F
100
AcDbEntity
  8
BLOCCO_stool_8500-00--2D
100
AcDbSpline
210
0.0
220
0.0
230
1.0
 70
    24
 71
     2
 72
     6
 73
     3
 74
     0
 42
0.0000000001
 43
0.0000000001
 40
0.0
 40
0.0
 40
0.0
 40
64.01845724540348
 40
64.01845724540348
 40
64.01845724540348
 10
-130.7618474518158
 20
109.5486221179628
 30
0.0
 10
-153.3957900714786
 20
132.1825647376256
 30
0.0
 10
-176.0297326911413
 20
154.8165073572884
 30
0.0
  0
SPLINE
  5
4B
330
1F
100
AcDbEntity
  8
BLOCCO_stool_8500-00--2D
100
AcDbSpline
210
0.0
220
0.0
230
1.0
 70
     8
 71
     5
 72
    12
 73
     6
 74
     0
 42
0.0000000001
 43
0.0000000001
 40
-1.0
 40
-1.0
 40
-1.0
 40
-1.0
 40
-1.0
 40
-1.0
 40
0.0
 40
0.0
 40
0.0
 40
0.0
 40
0.0
 40
0.0
 10
-176.0297326911413
 20
154.8165073572884
 30
0.0
 10
-176.1422887442177
 20
154.9290634103647
 30
0.0
 10
-176.254844797294
 20
155.041619463441
 30
0.0
 10
-176.3457276384729
 20
155.1778205716312
 30
0.0
 10
-176.4338915887642
 20
155.3107728431634
 30
0.0
 10
-176.5128900651543
 20
155.448964633427
 30
0.0
  0
SPLINE
  5
4C
330
1F
100
AcDbEntity
  8
BLOCCO_stool_8500-00--2D
100
AcDbSpline
210
0.0
220
0.0
230
1.0
 70
    12
 71
     2
 72
     6
 73
     3
 74
     0
 42
0.0000000001
 43
0.0000000001
 40
0.0
 40
0.0
 40
0.0
 40
3.695216059736189
 40
3.695216059736189
 40
3.695216059736189
 10
-176.5128900651543
 20
155.448964633427
 30
0.0
 41
1.0
 10
-177.5665489959576
 20
157.29212694021
 30
0.0
 41
0.8162715057217621
 10
-176.1787668535689
 20
158.8988368794773
 30
0.0
 41
1.0
  0
SPLINE
  5
4D
330
1F
100
AcDbEntity
  8
BLOCCO_stool_8500-00--2D
100
AcDbSpline
210
0.0
220
0.0
230
1.0
 70
    12
 71
     2
 72
     6
 73
     3
 74
     0
 42
0.0000000001
 43
0.0000000001
 40
0.0
 40
0.0
 40
0.0
 40
24.45917094162981
 40
24.45917094162981
 40
24.45917094162981
 10
-176.1787668535689
 20
158.8988368794773
 30
0.0
 41
1.0
 10
-168.1703465498152
 20
168.1703236183067
 30
0.0
 41
0.9973392809828759
 10
-158.8988631997535
 20
176.17874365178
 30
0.0
 41
1.0
  0
SPLINE
  5
4E
330
1F
100
AcDbEntity
  8
BLOCCO_stool_8500-00--2D
100
AcDbSpline
210
0.0
220
0.0
230
1.0
 70
    12
 71
     2
 72
     6
 73
     3
 74
     0
 42
0.0000000001
 43
0.0000000001
 40
0.0
 40
0.0
 40
0.0
 40
3.764253743239954
 40
3.764253743239954
 40
3.764253743239954
 10
-158.8988631997535
 20
176.17874365178
 30
0.0
 41
1.0
 10
-157.2526290805141
 20
177.6006729143628
 30
0.0
 41
0.8095706321443316
 10
-155.3894581132263
 20
176.4779247161598
 30
0.0
 41
1.0
  0
SPLINE
  5
4F
330
1F
100
AcDbEntity
  8
BLOCCO_stool_8500-00--2D
100
AcDbSpline
210
0.0
220
0.0
230
1.0
 70
     8
 71
     5
 72
    12
 73
     6
 74
     0
 42
0.0000000001
 43
0.0000000001
 40
0.0
 40
0.0
 40
0.0
 40
0.0
 40
0.0
 40
0.0
 40
1.0
 40
1.0
 40
1.0
 40
1.0
 40
1.0
 40
1.0
 10
-155.3894581132263
 20
176.4779247161598
 30
0.0
 10
-155.2648500523482
 20
176.4028358068274
 30
0.0
 10
-155.1447937501161
 20
176.3201933742968
 30
0.0
 10
-155.0222769358647
 20
176.2354584732049
 30
0.0
 10
-154.9194044100363
 20
176.1325859473766
 30
0.0
 10
-154.8165318842084
 20
176.0297134215482
 30
0.0
  0
SPLINE
  5
50
330
1F
100
AcDbEntity
  8
BLOCCO_stool_8500-00--2D
100
AcDbSpline
210
0.0
220
0.0
230
1.0
 70
    24
 71
     2
 72
     6
 73
     3
 74
     0
 42
0.0000000001
 43
0.0000000001
 40
-64.01854525763027
 40
-64.01854525763027
 40
-64.01854525763027
 40
0.0
 40
0.0
 40
0.0
 10
-154.8165318842084
 20
176.0297134215482
 30
0.0
 10
-132.1825581475241
 20
153.3957396848639
 30
0.0
 10
-109.5485844108398
 20
130.7617659481795
 30
0.0
  0
POINT
  5
51
330
1F
100
AcDbEntity
  8
BLOCCO_stool_8500-00--2D
100
AcDbPoint
 10
-0.0000023398806661
 20
-0.0000195583756408
 30
0.0
  0
SPLINE
  5
52
330
1F
100
AcDbEntity
  8
BLOCCO_stool_8500-00--2D
100
AcDbSpline
210
0.0
220
0.0
230
1.0
 70
    24
 71
     2
 72
     6
 73
     3
 74
     0
 42
0.0000000001
 43
0.0000000001
 40
0.0
 40
0.0
 40
0.0
 40
64.01845724540348
 40
64.01845724540348
 40
64.01845724540348
 10
109.5486221179626
 20
130.7618255535592
 30
0.0
 10
132.1825647376254
 20
153.3957681732221
 30
0.0
 10
154.8165073572882
 20
176.029710792885
 30
0.0
  0
SPLINE
  5
53
330
1F
100
AcDbEntity
  8
BLOCCO_stool_8500-00--2D
100
AcDbSpline
210
0.0
220
0.0
230
1.0
 70
     8
 71
     5
 72
    12
 73
     6
 74
     0
 42
0.0000000001
 43
0.0000000001
 40
-1.0
 40
-1.0
 40
-1.0
 40
-1.0
 40
-1.0
 40
-1.0
 40
0.0
 40
0.0
 40
0.0
 40
0.0
 40
0.0
 40
0.0
 10
154.8165073572882
 20
176.029710792885
 30
0.0
 10
154.9290634103645
 20
176.1422668459611
 30
0.0
 10
155.0416194634408
 20
176.2548228990372
 30
0.0
 10
155.1778205716309
 20
176.3457057402162
 30
0.0
 10
155.3107728431632
 20
176.4338696905078
 30
0.0
 10
155.4489646334268
 20
176.5128681668975
 30
0.0
  0
SPLINE
  5
54
330
1F
100
AcDbEntity
  8
BLOCCO_stool_8500-00--2D
100
AcDbSpline
210
0.0
220
0.0
230
1.0
 70
    12
 71
     2
 72
     6
 73
     3
 74
     0
 42
0.0000000001
 43
0.0000000001
 40
0.0
 40
0.0
 40
0.0
 40
3.695216059736189
 40
3.695216059736189
 40
3.695216059736189
 10
155.4489646334268
 20
176.5128681668975
 30
0.0
 41
1.0
 10
157.2921269402098
 20
177.5665270977009
 30
0.0
 41
0.8162715057217621
 10
158.8988368794771
 20
176.1787449553126
 30
0.0
 41
1.0
  0
SPLINE
  5
55
330
1F
100
AcDbEntity
  8
BLOCCO_stool_8500-00--2D
100
AcDbSpline
210
0.0
220
0.0
230
1.0
 70
    12
 71
     2
 72
     6
 73
     3
 74
     0
 42
0.0000000001
 43
0.0000000001
 40
0.0
 40
0.0
 40
0.0
 40
24.45917094162981
 40
24.45917094162981
 40
24.45917094162981
 10
158.8988368794771
 20
176.1787449553126
 30
0.0
 41
1.0
 10
168.1703236183065
 20
168.1703246515585
 30
0.0
 41
0.9973392809828759
 10
176.1787436517797
 20
158.8988413014972
 30
0.0
 41
1.0
  0
SPLINE
  5
56
330
1F
100
AcDbEntity
  8
BLOCCO_stool_8500-00--2D
100
AcDbSpline
210
0.0
220
0.0
230
1.0
 70
    12
 71
     2
 72
     6
 73
     3
 74
     0
 42
0.0000000001
 43
0.0000000001
 40
0.0
 40
0.0
 40
0.0
 40
3.764253743239954
 40
3.764253743239954
 40
3.764253743239954
 10
176.1787436517797
 20
158.8988413014972
 30
0.0
 41
1.0
 10
177.6006729143626
 20
157.2526071822574
 30
0.0
 41
0.8095706321443316
 10
176.4779247161595
 20
155.3894362149699
 30
0.0
 41
1.0
  0
SPLINE
  5
57
330
1F
100
AcDbEntity
  8
BLOCCO_stool_8500-00--2D
100
AcDbSpline
210
0.0
220
0.0
230
1.0
 70
     8
 71
     5
 72
    12
 73
     6
 74
     0
 42
0.0000000001
 43
0.0000000001
 40
0.0
 40
0.0
 40
0.0
 40
0.0
 40
0.0
 40
0.0
 40
1.0
 40
1.0
 40
1.0
 40
1.0
 40
1.0
 40
1.0
 10
176.4779247161595
 20
155.3894362149699
 30
0.0
 10
176.4028358068271
 20
155.2648281540914
 30
0.0
 10
176.3201933742966
 20
155.1447718518598
 30
0.0
 10
176.2354584732047
 20
155.0222550376081
 30
0.0
 10
176.1325859473763
 20
154.9193825117798
 30
0.0
 10
176.0297134215479
 20
154.8165099859516
 30
0.0
  0
SPLINE
  5
58
330
1F
100
AcDbEntity
  8
BLOCCO_stool_8500-00--2D
100
AcDbSpline
210
0.0
220
0.0
230
1.0
 70
    24
 71
     2
 72
     6
 73
     3
 74
     0
 42
0.0000000001
 43
0.0000000001
 40
-64.01854525763027
 40
-64.01854525763027
 40
-64.01854525763027
 40
0.0
 40
0.0
 40
0.0
 10
176.0297134215479
 20
154.8165099859516
 30
0.0
 10
153.3957396848636
 20
132.1825362492674
 30
0.0
 10
130.7617659481793
 20
109.5485625125832
 30
0.0
  0
LINE
  5
59
330
1F
100
AcDbEntity
  8
BLOCCO_stool_8500-00--2D
100
AcDbLine
 10
216.0474319856557
 20
216.0474332580386
 30
0.0
 11
-216.0474319856553
 21
-216.0474332580386
 31
0.0
  0
SPLINE
  5
5A
330
1F
100
AcDbEntity
  8
BLOCCO_stool_8500-00--2D
100
AcDbSpline
210
0.0
220
0.0
230
1.0
 70
    15
 71
     2
 72
    12
 73
     9
 74
     0
 42
0.0000000001
 43
0.0000000001
 40
0.0
 40
0.0
 40
0.0
 40
267.9557791859394
 40
267.9557791859394
 40
535.9115583718788
 40
535.9115583718788
 40
803.8673375578182
 40
803.8673375578182
 40
1071.823116743757
 40
1071.823116743757
 40
1071.823116743757
 10
120.6224703141834
 20
120.6224703144073
 30
0.0
 41
1.0
 10
241.2449590387035
 20
-0.0000009707638889
 30
0.0
 41
0.7071067811865476
 10
120.6224877535323
 20
-120.622489695284
 30
0.0
 41
1.0
 10
0.0000164683614769
 20
-241.2449784198042
 30
0.0
 41
0.7071067811865476
 10
-120.6224722561587
 20
-120.622507134633
 30
0.0
 41
1.0
 10
-241.2449609806792
 20
-0.0000358494618977
 30
0.0
 41
0.7071067811865476
 10
-120.6224896955077
 20
120.6224528750582
 30
0.0
 41
1.0
 10
-0.0000184103364515
 20
241.2449415995785
 30
0.0
 41
0.7071067811865476
 10
120.6224703141834
 20
120.6224703144073
 30
0.0
 41
1.0
  0
SPLINE
  5
5B
330
1F
100
AcDbEntity
  8
BLOCCO_stool_8500-00--2D
100
AcDbSpline
210
0.0
220
0.0
230
1.0
 70
    12
 71
     2
 72
     6
 73
     3
 74
     0
 42
0.0000000001
 43
0.0000000001
 40
0.0
 40
0.0
 40
0.0
 40
265.3082079347354
 40
265.3082079347354
 40
265.3082079347354
 10
-121.9194022792044
 20
143.1326057147862
 30
0.0
 41
1.0
 10
-0.0000005489255162
 20
246.98272006749
 30
0.0
 41
0.7612652604235836
 10
121.9193948695183
 20
143.1325983047317
 30
0.0
 41
1.0
  0
SPLINE
  5
5C
330
1F
100
AcDbEntity
  8
BLOCCO_stool_8500-00--2D
100
AcDbSpline
210
0.0
220
0.0
230
1.0
 70
    12
 71
     2
 72
     6
 73
     3
 74
     0
 42
0.0000000001
 43
0.0000000001
 40
0.0
 40
0.0
 40
0.0
 40
265.3082018346355
 40
265.3082018346355
 40
265.3082018346355
 10
-143.1325986026031
 20
-121.9193951668103
 30
0.0
 41
1.0
 10
-246.9827375904523
 20
-0.0000005529812041
 30
0.0
 41
0.7612651656655088
 10
-143.1325911390581
 20
121.919387703449
 30
0.0
 41
1.0
  0
SPLINE
  5
5D
330
1F
100
AcDbEntity
  8
BLOCCO_stool_8500-00--2D
100
AcDbSpline
210
0.0
220
0.0
230
1.0
 70
    12
 71
     2
 72
     6
 73
     3
 74
     0
 42
0.0000000001
 43
0.0000000001
 40
0.0
 40
0.0
 40
0.0
 40
265.3082079716092
 40
265.3082079716092
 40
265.3082079716092
 10
121.919402193359
 20
-143.132605628904
 30
0.0
 41
1.0
 10
0.0000005319445641
 20
-246.9827200324923
 30
0.0
 41
0.7612652607010013
 10
-121.9193950146427
 20
-143.1325984501348
 30
0.0
 41
1.0
  0
SPLINE
  5
5E
330
1F
100
AcDbEntity
  8
BLOCCO_stool_8500-00--2D
100
AcDbSpline
210
0.0
220
0.0
230
1.0
 70
    12
 71
     2
 72
     6
 73
     3
 74
     0
 42
0.0000000001
 43
0.0000000001
 40
0.0
 40
0.0
 40
0.0
 40
265.3082019058341
 40
265.3082019058341
 40
265.3082019058341
 10
143.1325987981845
 20
121.9193953621599
 30
0.0
 41
1.0
 10
246.9827374491725
 20
0.0000005712657443
 30
0.0
 41
0.7612651665081288
 10
143.132591086247
 20
-121.9193876506507
 30
0.0
 41
1.0
  0
SPLINE
  5
5F
330
1F
100
AcDbEntity
  8
BLOCCO_stool_8500-00--2D
100
AcDbSpline
210
0.0
220
0.0
230
1.0
 70
    15
 71
     2
 72
    12
 73
     9
 74
     0
 42
0.0000000001
 43
0.0000000001
 40
0.0
 40
0.0
 40
0.0
 40
259.2141843203509
 40
259.2141843203509
 40
518.4283686407018
 40
518.4283686407018
 40
777.6425529610527
 40
777.6425529610527
 40
1036.856737281403
 40
1036.856737281403
 40
1036.856737281403
 10
116.6873688123551
 20
116.6873688123559
 30
0.0
 41
1.0
 10
233.374757183087
 20
-0.0000023398796092
 30
0.0
 41
0.7071067811865476
 10
116.6873860308515
 20
-116.6873907106109
 30
0.0
 41
1.0
 10
0.0000148786157413
 20
-233.3747790813422
 30
0.0
 41
0.7071067811865476
 10
-116.6873734921155
 20
-116.6874079291066
 30
0.0
 41
1.0
 10
-233.3747618628469
 20
-0.0000367768711083
 30
0.0
 41
0.7071067811865476
 10
-116.687390710611
 20
116.68735159386
 30
0.0
 41
1.0
 10
-0.0000195583756774
 20
233.3747399645913
 30
0.0
 41
0.7071067811865476
 10
116.6873688123551
 20
116.6873688123559
 30
0.0
 41
1.0
  0
POLYLINE
  5
60
330
1F
100
AcDbEntity
  8
BLOCCO_stool_8500-00--2D
100
AcDb2dPolyline
 66
     1
 10
0.0
 20
0.0
 30
0.0
  0
VERTEX
  5
61
330
60
100
AcDbEntity
  8
BLOCCO_stool_8500-00--2D
100
AcDbVertex
100
AcDb2dVertex
 10
167.5854919357916
 20
1214.116617929952
 30
0.0
  0
VERTEX
  5
62
330
60
100
AcDbEntity
  8
BLOCCO_stool_8500-00--2D
100
AcDbVertex
100
AcDb2dVertex
 10
-167.5854819410642
 20
1214.116617929953
 30
0.0
  0
SEQEND
  5
63
330
60
100
AcDbEntity
  8
BLOCCO_stool_8500-00--2D
  0
SPLINE
  5
64
330
1F
100
AcDbEntity
  8
BLOCCO_stool_8500-00--2D
100
AcDbSpline
210
0.0
220
0.0
230
1.0
 70
    12
 71
     2
 72
     8
 73
     5
 74
     0
 42
0.0000000001
 43
0.0000000001
 40
0.0
 40
0.0
 40
0.0
 40
2.500183638729067
 40
2.500183638729067
 40
5.000367277458134
 40
5.000367277458134
 40
5.000367277458134
 10
-167.5854819410642
 20
1214.116617929953
 30
0.0
 41
1.0
 10
-168.9138005874408
 20
1214.116618353944
 30
0.0
 41
0.9144306721758827
 10
-169.8066033219538
 20
1215.099517872281
 30
0.0
 41
1.0
 10
-170.6994060564674
 20
1216.082417390617
 30
0.0
 41
0.9144306721758827
 10
-170.57212677189
 20
1217.404199961968
 30
0.0
 41
1.0
  0
SPLINE
  5
65
330
1F
100
AcDbEntity
  8
BLOCCO_stool_8500-00--2D
100
AcDbSpline
210
0.0
220
0.0
230
1.0
 70
    24
 71
     2
 72
     6
 73
     3
 74
     0
 42
0.0000000001
 43
0.0000000001
 40
0.0
 40
0.0
 40
0.0
 40
23.84093687859647
 40
23.84093687859647
 40
23.84093687859647
 10
-170.57212677189
 20
1217.404199961968
 30
0.0
 10
-169.4295961526386
 20
1229.26983369567
 30
0.0
 10
-168.2870655333872
 20
1241.135467429372
 30
0.0
  0
SPLINE
  5
66
330
1F
100
AcDbEntity
  8
BLOCCO_stool_8500-00--2D
100
AcDbSpline
210
0.0
220
0.0
230
1.0
 70
    12
 71
     2
 72
     6
 73
     3
 74
     0
 42
0.0000000001
 43
0.0000000001
 40
0.0
 40
0.0
 40
0.0
 40
4.424319622360262
 40
4.424319622360262
 40
4.424319622360262
 10
-168.2870655333872
 20
1241.135467429372
 30
0.0
 41
1.0
 10
-168.0258125624106
 20
1243.84788484085
 30
0.0
 41
0.7402283711408665
 10
-165.3008599311128
 20
1243.84785656481
 30
0.0
 41
1.0
  0
SPLINE
  5
67
330
1F
100
AcDbEntity
  8
BLOCCO_stool_8500-00--2D
100
AcDbSpline
210
0.0
220
0.0
230
1.0
 70
    12
 71
     2
 72
     6
 73
     3
 74
     0
 42
0.0000000001
 43
0.0000000001
 40
0.0
 40
0.0
 40
0.0
 40
330.6017287066225
 40
330.6017287066225
 40
330.6017287066225
 10
-165.3008599311128
 20
1243.84785656481
 30
0.0
 41
1.0
 10
0.0000314795706799
 20
1243.847827711964
 30
0.0
 41
1.0
 10
165.3008958330438
 20
1243.847856350068
 30
0.0
 41
1.0
  0
SPLINE
  5
68
330
1F
100
AcDbEntity
  8
BLOCCO_stool_8500-00--2D
100
AcDbSpline
210
0.0
220
0.0
230
1.0
 70
    12
 71
     2
 72
     6
 73
     3
 74
     0
 42
0.0000000001
 43
0.0000000001
 40
-4.424320205303989
 40
-4.424320205303989
 40
-4.424320205303989
 40
0.0
 40
0.0
 40
0.0
 10
165.3008958330438
 20
1243.847856350068
 30
0.0
 41
1.0
 10
168.025822553292
 20
1243.847885922171
 30
0.0
 41
0.7402280737691529
 10
168.2870671297523
 20
1241.135467356412
 30
0.0
 41
1.0
  0
SPLINE
  5
69
330
1F
100
AcDbEntity
  8
BLOCCO_stool_8500-00--2D
100
AcDbSpline
210
0.0
220
0.0
230
1.0
 70
    24
 71
     2
 72
     6
 73
     3
 74
     0
 42
0.0000000001
 43
0.0000000001
 40
0.0
 40
0.0
 40
0.0
 40
23.84093850446701
 40
23.84093850446701
 40
23.84093850446701
 10
168.2870671297523
 20
1241.135467356412
 30
0.0
 10
169.4295978360669
 20
1229.269833254594
 30
0.0
 10
170.5721285423815
 20
1217.404199152775
 30
0.0
  0
SPLINE
  5
6A
330
1F
100
AcDbEntity
  8
BLOCCO_stool_8500-00--2D
100
AcDbSpline
210
0.0
220
0.0
230
1.0
 70
    12
 71
     2
 72
     8
 73
     5
 74
     0
 42
0.0000000001
 43
0.0000000001
 40
0.0
 40
0.0
 40
0.0
 40
2.500183334797605
 40
2.500183334797605
 40
5.00036666959521
 40
5.00036666959521
 40
5.00036666959521
 10
170.5721285423815
 20
1217.404199152775
 30
0.0
 41
1.0
 10
170.6994148215821
 20
1216.08241758248
 30
0.0
 41
0.9144307630758971
 10
169.8066122459959
 20
1215.099518259556
 30
0.0
 41
1.0
 10
168.9138096704089
 20
1214.116618936633
 30
0.0
 41
0.9144307630758971
 10
167.5854919357916
 20
1214.116617929952
 30
0.0
 41
1.0
  0
SPLINE
  5
6B
330
1F
100
AcDbEntity
  8
BLOCCO_stool_8500-00--2D
100
AcDbSpline
210
0.0
220
0.0
230
1.0
 70
    24
 71
     2
 72
     6
 73
     3
 74
     0
 42
0.0000000001
 43
0.0000000001
 40
-726.3910876969629
 40
-726.3910876969629
 40
-726.3910876969629
 40
0.0
 40
0.0
 40
0.0
 10
158.8899082376892
 20
489.4033971885981
 30
0.0
 10
134.2182645418597
 20
851.7600075592756
 30
0.0
 10
109.5466208460302
 20
1214.116617929953
 30
0.0
  0
SPLINE
  5
6C
330
1F
100
AcDbEntity
  8
BLOCCO_stool_8500-00--2D
100
AcDbSpline
210
0.0
220
0.0
230
1.0
 70
    24
 71
     2
 72
     6
 73
     3
 74
     0
 42
0.0000000001
 43
0.0000000001
 40
0.0
 40
0.0
 40
0.0
 40
420.7519649110339
 40
420.7519649110339
 40
420.7519649110339
 10
87.82877763435498
 20
1214.116552008518
 30
0.0
 10
102.1194851423129
 20
1004.226510129395
 30
0.0
 10
116.4101926502708
 20
794.3364682502724
 30
0.0
  0
SPLINE
  5
6D
330
1F
100
AcDbEntity
  8
BLOCCO_stool_8500-00--2D
100
AcDbSpline
210
0.0
220
0.0
230
1.0
 70
     8
 71
     3
 72
    13
 73
     9
 74
     0
 42
0.0000000001
 43
0.0000000001
 40
0.0
 40
0.0
 40
0.0
 40
0.0
 40
0.0295339467958451
 40
0.0765191442181671
 40
0.1475185597620148
 40
0.2408805797500551
 40
0.5304256429456924
 40
1.080645483745055
 40
1.080645483745055
 40
1.080645483745055
 40
1.080645483745055
 10
116.4101926502708
 20
794.3364682502724
 30
0.0
 10
116.4110121299472
 20
794.3264745921631
 30
0.0
 10
116.4242338459335
 20
794.3039093605234
 30
0.0
 10
116.4607634514859
 20
794.2708076995243
 30
0.0
 10
116.5181736314598
 20
794.2298463143513
 30
0.0
 10
116.647388324347
 20
794.1510308885967
 30
0.0
 10
116.9210950226652
 20
794.003141022558
 30
0.0
 10
117.1699175352396
 20
793.8749616377315
 30
0.0
 10
117.3329606133911
 20
793.7909473790148
 30
0.0
  0
SPLINE
  5
6E
330
1F
100
AcDbEntity
  8
BLOCCO_stool_8500-00--2D
100
AcDbSpline
210
0.0
220
0.0
230
1.0
 70
     8
 71
     3
 72
    19
 73
    15
 74
     0
 42
0.0000000001
 43
0.0000000001
 40
0.0
 40
0.0
 40
0.0
 40
0.0
 40
1.128758590937058
 40
2.313216050381889
 40
3.520416091360339
 40
4.751888159386187
 40
7.410690249726372
 40
10.29839145240217
 40
13.22106370309857
 40
15.99542914625781
 40
17.38847983477293
 40
18.72688560356367
 40
19.88730500496966
 40
21.11617556224518
 40
21.11617556224518
 40
21.11617556224518
 40
21.11617556224518
 10
117.3329606133911
 20
793.7909473790148
 30
0.0
 10
117.6675384796663
 20
793.6186391316164
 30
0.0
 10
118.3198919305014
 20
793.2024474405416
 30
0.0
 10
119.1947243968852
 20
792.414575416597
 30
0.0
 10
119.9660226903643
 20
791.481932571617
 30
0.0
 10
120.8716837429374
 20
790.0397725656018
 30
0.0
 10
121.7148164105747
 20
787.9284728825153
 30
0.0
 10
122.1937964758553
 20
785.1315962864496
 30
0.0
 10
122.1077964067563
 20
782.2571441476952
 30
0.0
 10
121.5684458457335
 20
779.943454134318
 30
0.0
 10
120.8605690850245
 20
778.246289265433
 30
0.0
 10
120.2173468855153
 20
777.1168757762834
 30
0.0
 10
119.4690590542632
 20
776.1215812252315
 30
0.0
 10
118.9049707180847
 20
775.556198635955
 30
0.0
 10
118.5925502714235
 20
775.2911406952947
 30
0.0
  0
SPLINE
  5
6F
330
1F
100
AcDbEntity
  8
BLOCCO_stool_8500-00--2D
100
AcDbSpline
210
0.0
220
0.0
230
1.0
 70
     8
 71
     3
 72
    14
 73
    10
 74
     0
 42
0.0000000001
 43
0.0000000001
 40
0.0
 40
0.0
 40
0.0
 40
0.0
 40
0.2816022377785738
 40
0.508980518690358
 40
0.8726185213663526
 40
1.010984746689983
 40
1.131371133009596
 40
1.220425857837894
 40
1.290472466441155
 40
1.290472466441155
 40
1.290472466441155
 40
1.290472466441155
 10
118.5925502714235
 20
775.2911406952947
 30
0.0
 10
118.5210631161117
 20
775.2303603958915
 30
0.0
 10
118.3925140393103
 20
775.1194701774941
 30
0.0
 10
118.1785511926691
 20
774.9225831478366
 30
0.0
 10
118.0066572037531
 20
774.7501580567807
 30
0.0
 10
117.8764793380978
 20
774.5883115052877
 30
0.0
 10
117.8142213369265
 20
774.4902255342053
 30
0.0
 10
117.7778056719698
 20
774.4039309495258
 30
0.0
 10
117.770940307374
 20
774.3506677076525
 30
0.0
 10
117.7725462242206
 20
774.3273502381546
 30
0.0
  0
SPLINE
  5
70
330
1F
100
AcDbEntity
  8
BLOCCO_stool_8500-00--2D
100
AcDbSpline
210
0.0
220
0.0
230
1.0
 70
    24
 71
     2
 72
     6
 73
     3
 74
     0
 42
0.0000000001
 43
0.0000000001
 40
0.0
 40
0.0
 40
0.0
 40
286.0748473179989
 40
286.0748473179989
 40
286.0748473179989
 10
117.7725462242206
 20
774.3273502381546
 30
0.0
 10
127.4889960553646
 20
631.6202071108026
 30
0.0
 10
137.2054458865086
 20
488.9130639834506
 30
0.0
  0
SPLINE
  5
71
330
1F
100
AcDbEntity
  8
BLOCCO_stool_8500-00--2D
100
AcDbSpline
210
0.0
220
0.0
230
1.0
 70
    12
 71
     2
 72
     6
 73
     3
 74
     0
 42
0.0000000001
 43
0.0000000001
 40
0.0
 40
0.0
 40
0.0
 40
4.444392454321006
 40
4.444392454321006
 40
4.444392454321006
 10
137.2054458865086
 20
488.9130639834506
 30
0.0
 41
1.0
 10
137.3918118564178
 20
486.17586790967
 30
0.0
 41
0.7379746435890853
 10
140.1344854461476
 20
486.1173016703068
 30
0.0
 41
1.0
  0
POLYLINE
  5
72
330
1F
100
AcDbEntity
  8
BLOCCO_stool_8500-00--2D
100
AcDb2dPolyline
 66
     1
 10
0.0
 20
0.0
 30
0.0
  0
VERTEX
  5
73
330
72
100
AcDbEntity
  8
BLOCCO_stool_8500-00--2D
100
AcDbVertex
100
AcDb2dVertex
 10
140.1344854461476
 20
486.1173016703068
 30
0.0
  0
VERTEX
  5
74
330
72
100
AcDbEntity
  8
BLOCCO_stool_8500-00--2D
100
AcDbVertex
100
AcDb2dVertex
 10
173.9612238481122
 20
486.1170822374713
 30
0.0
  0
SEQEND
  5
75
330
72
100
AcDbEntity
  8
BLOCCO_stool_8500-00--2D
  0
SPLINE
  5
76
330
1F
100
AcDbEntity
  8
BLOCCO_stool_8500-00--2D
100
AcDbSpline
210
0.0
220
0.0
230
1.0
 70
    12
 71
     2
 72
     8
 73
     5
 74
     0
 42
0.0000000001
 43
0.0000000001
 40
0.0
 40
0.0
 40
0.0
 40
2.431748359026303
 40
2.431748359026303
 40
4.863496718052606
 40
4.863496718052606
 40
4.863496718052606
 10
173.9612238481122
 20
486.1170822374713
 30
0.0
 41
1.0
 10
175.24815801411
 20
486.1397306217012
 30
0.0
 41
0.9189876477754037
 10
176.1185412013046
 20
487.087963506792
 30
0.0
 41
1.0
 10
176.9889243884995
 20
488.0361963918826
 30
0.0
 41
0.9189876477754037
 10
176.9015115858938
 20
489.3203581803112
 30
0.0
 41
1.0
  0
SPLINE
  5
77
330
1F
100
AcDbEntity
  8
BLOCCO_stool_8500-00--2D
100
AcDbSpline
210
0.0
220
0.0
230
1.0
 70
     8
 71
     5
 72
    12
 73
     6
 74
     0
 42
0.0000000001
 43
0.0000000001
 40
-1.0
 40
-1.0
 40
-1.0
 40
-1.0
 40
-1.0
 40
-1.0
 40
0.0
 40
0.0
 40
0.0
 40
0.0
 40
0.0
 40
0.0
 10
176.9015115858938
 20
489.3203581803112
 30
0.0
 10
176.9014818881724
 20
489.3207944628395
 30
0.0
 10
176.9014521109593
 20
489.3212307399568
 30
0.0
 10
176.9014165551007
 20
489.3216666155628
 30
0.0
 10
176.9013868501233
 20
489.3221028975971
 30
0.0
 10
176.901357145146
 20
489.3225391796314
 30
0.0
  0
SPLINE
  5
78
330
1F
100
AcDbEntity
  8
BLOCCO_stool_8500-00--2D
100
AcDbSpline
210
0.0
220
0.0
230
1.0
 70
    24
 71
     2
 72
     6
 73
     3
 74
     0
 42
0.0000000001
 43
0.0000000001
 40
0.0
 40
0.0
 40
0.0
 40
726.4721328106198
 40
726.4721328106198
 40
726.4721328106198
 10
176.901357145146
 20
489.3225391796314
 30
0.0
 10
152.2269607786384
 20
851.7195784908697
 30
0.0
 10
127.5525644121308
 20
1214.116617802108
 30
0.0
  0
SPLINE
  5
79
330
1F
100
AcDbEntity
  8
BLOCCO_stool_8500-00--2D
100
AcDbSpline
210
0.0
220
0.0
230
1.0
 70
    12
 71
     3
 72
    11
 73
     7
 74
     0
 42
0.0000000001
 43
0.0000000001
 40
0.37118460102435
 40
0.37118460102435
 40
0.37118460102435
 40
0.37118460102435
 40
0.7853981633974501
 40
0.7853981633974501
 40
0.7853981633974501
 40
1.19961172577054
 40
1.19961172577054
 40
1.19961172577054
 40
1.19961172577054
 10
158.401454426451
 20
484.1166179299488
 30
0.0
 41
1.0
 10
158.5753581679238
 20
484.1166179299488
 30
0.0
 41
0.9512775218855825
 10
158.7422292221768
 20
484.2142490028866
 30
0.0
 41
0.9485864075433493
 10
158.8722304242665
 20
484.4095111487622
 30
0.0
 41
1.0
 10
159.0022316263571
 20
484.6047732946378
 30
0.0
 41
0.9485864075433507
 10
159.067232227402
 20
484.855414054985
 30
0.0
 41
0.9512775218855825
 10
159.0672322274022
 20
485.1166179299488
 30
0.0
 41
1.0
  0
SPLINE
  5
7A
330
1F
100
AcDbEntity
  8
BLOCCO_stool_8500-00--2D
100
AcDbSpline
210
0.0
220
0.0
230
1.0
 70
    24
 71
     2
 72
     6
 73
     3
 74
     0
 42
0.0000000001
 43
0.0000000001
 40
-1.0
 40
-1.0
 40
-1.0
 40
0.0
 40
0.0
 40
0.0
 10
159.0672322274022
 20
485.1166179299488
 30
0.0
 10
159.0672322274022
 20
485.6166179299488
 30
0.0
 10
159.0672322274022
 20
486.1166179299488
 30
0.0
  0
SPLINE
  5
7B
330
1F
100
AcDbEntity
  8
BLOCCO_stool_8500-00--2D
100
AcDbSpline
210
0.0
220
0.0
230
1.0
 70
    24
 71
     2
 72
     6
 73
     3
 74
     0
 42
0.0000000001
 43
0.0000000001
 40
0.0
 40
0.0
 40
0.0
 40
1.0
 40
1.0
 40
1.0
 10
172.7966084674135
 20
486.1166179299488
 30
0.0
 10
172.7969115720334
 20
485.6166179299488
 30
0.0
 10
172.7972146766533
 20
485.1166179299488
 30
0.0
  0
SPLINE
  5
7C
330
1F
100
AcDbEntity
  8
BLOCCO_stool_8500-00--2D
100
AcDbSpline
210
0.0
220
0.0
230
1.0
 70
    12
 71
     2
 72
     6
 73
     3
 74
     0
 42
0.0000000001
 43
0.0000000001
 40
-1.570793873243079
 40
-1.570793873243079
 40
-1.570793873243079
 40
0.0
 40
0.0
 40
0.0
 10
172.797214676653
 20
485.1166179299487
 30
0.0
 41
0.9999999991992334
 10
172.7978176968464
 20
484.1166222026894
 30
0.0
 41
0.7071094190499073
 10
171.7978219715242
 20
484.1166179299493
 30
0.0
 41
1.0
  0
POLYLINE
  5
7D
330
1F
100
AcDbEntity
  8
BLOCCO_stool_8500-00--2D
100
AcDb2dPolyline
 66
     1
 10
0.0
 20
0.0
 30
0.0
  0
VERTEX
  5
7E
330
7D
100
AcDbEntity
  8
BLOCCO_stool_8500-00--2D
100
AcDbVertex
100
AcDb2dVertex
 10
171.7978219715242
 20
484.1166179299493
 30
0.0
  0
VERTEX
  5
7F
330
7D
100
AcDbEntity
  8
BLOCCO_stool_8500-00--2D
100
AcDbVertex
100
AcDb2dVertex
 10
142.4581358208588
 20
484.1166179299488
 30
0.0
  0
SEQEND
  5
80
330
7D
100
AcDbEntity
  8
BLOCCO_stool_8500-00--2D
  0
SPLINE
  5
81
330
1F
100
AcDbEntity
  8
BLOCCO_stool_8500-00--2D
100
AcDbSpline
210
0.0
220
0.0
230
1.0
 70
    12
 71
     2
 72
     8
 73
     5
 74
     0
 42
0.0000000001
 43
0.0000000001
 40
0.0
 40
0.0
 40
0.0
 40
0.7853981633974549
 40
0.7853981633974549
 40
1.570796326794861
 40
1.570796326794861
 40
1.570796326794861
 10
142.4581358208588
 20
484.1166179299488
 30
0.0
 41
1.0
 10
142.0439222584857
 20
484.1166179299488
 30
0.0
 41
0.9238795325112342
 10
141.7510290396722
 20
484.4095111487622
 30
0.0
 41
1.0
 10
141.4581358208585
 20
484.7024043675757
 30
0.0
 41
0.9238795325114288
 10
141.4581358208588
 20
485.1166179299488
 30
0.0
 41
1.0
  0
SPLINE
  5
82
330
1F
100
AcDbEntity
  8
BLOCCO_stool_8500-00--2D
100
AcDbSpline
210
0.0
220
0.0
230
1.0
 70
    24
 71
     2
 72
     6
 73
     3
 74
     0
 42
0.0000000001
 43
0.0000000001
 40
-1.0
 40
-1.0
 40
-1.0
 40
0.0
 40
0.0
 40
0.0
 10
141.4581358208588
 20
485.1166179299488
 30
0.0
 10
141.4581358208588
 20
485.6166179299488
 30
0.0
 10
141.4581358208588
 20
486.1166179299488
 30
0.0
  0
SPLINE
  5
83
330
1F
100
AcDbEntity
  8
BLOCCO_stool_8500-00--2D
100
AcDbSpline
210
0.0
220
0.0
230
1.0
 70
    24
 71
     2
 72
     6
 73
     3
 74
     0
 42
0.0000000001
 43
0.0000000001
 40
-726.3910876969629
 40
-726.3910876969629
 40
-726.3910876969629
 40
0.0
 40
0.0
 40
0.0
 10
-158.8898723357583
 20
489.4033971885981
 30
0.0
 10
-134.2182286399288
 20
851.7600075592756
 30
0.0
 10
-109.5465849440993
 20
1214.116617929953
 30
0.0
  0
SPLINE
  5
84
330
1F
100
AcDbEntity
  8
BLOCCO_stool_8500-00--2D
100
AcDbSpline
210
0.0
220
0.0
230
1.0
 70
    24
 71
     2
 72
     6
 73
     3
 74
     0
 42
0.0000000001
 43
0.0000000001
 40
0.0
 40
0.0
 40
0.0
 40
420.7519649110339
 40
420.7519649110339
 40
420.7519649110339
 10
-87.82874173242452
 20
1214.116552008518
 30
0.0
 10
-102.1194492403824
 20
1004.226510129395
 30
0.0
 10
-116.4101567483403
 20
794.3364682502724
 30
0.0
  0
SPLINE
  5
85
330
1F
100
AcDbEntity
  8
BLOCCO_stool_8500-00--2D
100
AcDbSpline
210
0.0
220
0.0
230
1.0
 70
     8
 71
     3
 72
    13
 73
     9
 74
     0
 42
0.0000000001
 43
0.0000000001
 40
0.0
 40
0.0
 40
0.0
 40
0.0
 40
0.0295339467958451
 40
0.0765191442181671
 40
0.1475185597620148
 40
0.2408805797500551
 40
0.5304256429456924
 40
1.080645483745055
 40
1.080645483745055
 40
1.080645483745055
 40
1.080645483745055
 10
-116.4101567483403
 20
794.3364682502724
 30
0.0
 10
-116.4109762280168
 20
794.3264745921631
 30
0.0
 10
-116.424197944003
 20
794.3039093605234
 30
0.0
 10
-116.4607275495559
 20
794.2708076995243
 30
0.0
 10
-116.5181377295298
 20
794.2298463143513
 30
0.0
 10
-116.6473524224166
 20
794.1510308885967
 30
0.0
 10
-116.9210591207347
 20
794.003141022558
 30
0.0
 10
-117.1698816333091
 20
793.8749616377315
 30
0.0
 10
-117.3329247114607
 20
793.7909473790148
 30
0.0
  0
SPLINE
  5
86
330
1F
100
AcDbEntity
  8
BLOCCO_stool_8500-00--2D
100
AcDbSpline
210
0.0
220
0.0
230
1.0
 70
     8
 71
     3
 72
    19
 73
    15
 74
     0
 42
0.0000000001
 43
0.0000000001
 40
0.0
 40
0.0
 40
0.0
 40
0.0
 40
1.128758590937058
 40
2.313216050381889
 40
3.520416091360339
 40
4.751888159386187
 40
7.410690249726372
 40
10.29839145240217
 40
13.22106370309857
 40
15.99542914625781
 40
17.38847983477293
 40
18.72688560356367
 40
19.88730500496966
 40
21.11617556224518
 40
21.11617556224518
 40
21.11617556224518
 40
21.11617556224518
 10
-117.3329247114607
 20
793.7909473790148
 30
0.0
 10
-117.6675025777358
 20
793.6186391316164
 30
0.0
 10
-118.3198560285709
 20
793.2024474405416
 30
0.0
 10
-119.1946884949548
 20
792.414575416597
 30
0.0
 10
-119.9659867884338
 20
791.481932571617
 30
0.0
 10
-120.8716478410074
 20
790.0397725656018
 30
0.0
 10
-121.7147805086442
 20
787.9284728825153
 30
0.0
 10
-122.1937605739249
 20
785.1315962864496
 30
0.0
 10
-122.1077605048253
 20
782.2571441476952
 30
0.0
 10
-121.5684099438031
 20
779.943454134318
 30
0.0
 10
-120.860533183094
 20
778.246289265433
 30
0.0
 10
-120.2173109835853
 20
777.1168757762834
 30
0.0
 10
-119.4690231523327
 20
776.1215812252315
 30
0.0
 10
-118.9049348161543
 20
775.556198635955
 30
0.0
 10
-118.592514369493
 20
775.2911406952947
 30
0.0
  0
SPLINE
  5
87
330
1F
100
AcDbEntity
  8
BLOCCO_stool_8500-00--2D
100
AcDbSpline
210
0.0
220
0.0
230
1.0
 70
     8
 71
     3
 72
    14
 73
    10
 74
     0
 42
0.0000000001
 43
0.0000000001
 40
0.0
 40
0.0
 40
0.0
 40
0.0
 40
0.2816022377785738
 40
0.508980518690358
 40
0.8726185213663526
 40
1.010984746689983
 40
1.131371133009596
 40
1.220425857837894
 40
1.290472466441155
 40
1.290472466441155
 40
1.290472466441155
 40
1.290472466441155
 10
-118.592514369493
 20
775.2911406952947
 30
0.0
 10
-118.5210272141812
 20
775.2303603958915
 30
0.0
 10
-118.3924781373803
 20
775.1194701774941
 30
0.0
 10
-118.1785152907387
 20
774.9225831478366
 30
0.0
 10
-118.0066213018222
 20
774.7501580567807
 30
0.0
 10
-117.8764434361674
 20
774.5883115052877
 30
0.0
 10
-117.814185434996
 20
774.4902255342053
 30
0.0
 10
-117.7777697700394
 20
774.4039309495258
 30
0.0
 10
-117.7709044054436
 20
774.3506677076525
 30
0.0
 10
-117.7725103222906
 20
774.3273502381546
 30
0.0
  0
SPLINE
  5
88
330
1F
100
AcDbEntity
  8
BLOCCO_stool_8500-00--2D
100
AcDbSpline
210
0.0
220
0.0
230
1.0
 70
    24
 71
     2
 72
     6
 73
     3
 74
     0
 42
0.0000000001
 43
0.0000000001
 40
0.0
 40
0.0
 40
0.0
 40
286.0748473179989
 40
286.0748473179989
 40
286.0748473179989
 10
-117.7725103222906
 20
774.3273502381546
 30
0.0
 10
-127.4889601534346
 20
631.6202071108026
 30
0.0
 10
-137.2054099845786
 20
488.9130639834506
 30
0.0
  0
SPLINE
  5
89
330
1F
100
AcDbEntity
  8
BLOCCO_stool_8500-00--2D
100
AcDbSpline
210
0.0
220
0.0
230
1.0
 70
    12
 71
     2
 72
     6
 73
     3
 74
     0
 42
0.0000000001
 43
0.0000000001
 40
0.0
 40
0.0
 40
0.0
 40
4.444392454321006
 40
4.444392454321006
 40
4.444392454321006
 10
-137.2054099845786
 20
488.9130639834506
 30
0.0
 41
1.0
 10
-137.3917759544874
 20
486.17586790967
 30
0.0
 41
0.7379746435890853
 10
-140.1344495442172
 20
486.1173016703068
 30
0.0
 41
1.0
  0
POLYLINE
  5
8A
330
1F
100
AcDbEntity
  8
BLOCCO_stool_8500-00--2D
100
AcDb2dPolyline
 66
     1
 10
0.0
 20
0.0
 30
0.0
  0
VERTEX
  5
8B
330
8A
100
AcDbEntity
  8
BLOCCO_stool_8500-00--2D
100
AcDbVertex
100
AcDb2dVertex
 10
-140.1344495442172
 20
486.1173016703068
 30
0.0
  0
VERTEX
  5
8C
330
8A
100
AcDbEntity
  8
BLOCCO_stool_8500-00--2D
100
AcDbVertex
100
AcDb2dVertex
 10
-173.9611879461818
 20
486.1170822374713
 30
0.0
  0
SEQEND
  5
8D
330
8A
100
AcDbEntity
  8
BLOCCO_stool_8500-00--2D
  0
SPLINE
  5
8E
330
1F
100
AcDbEntity
  8
BLOCCO_stool_8500-00--2D
100
AcDbSpline
210
0.0
220
0.0
230
1.0
 70
    12
 71
     2
 72
     8
 73
     5
 74
     0
 42
0.0000000001
 43
0.0000000001
 40
0.0
 40
0.0
 40
0.0
 40
2.431748359026303
 40
2.431748359026303
 40
4.863496718052606
 40
4.863496718052606
 40
4.863496718052606
 10
-173.9611879461818
 20
486.1170822374713
 30
0.0
 41
1.0
 10
-175.2481221121793
 20
486.1397306217012
 30
0.0
 41
0.9189876477754037
 10
-176.1185052993742
 20
487.087963506792
 30
0.0
 41
1.0
 10
-176.9888884865689
 20
488.0361963918826
 30
0.0
 41
0.9189876477754037
 10
-176.9014756839633
 20
489.3203581803112
 30
0.0
 41
1.0
  0
SPLINE
  5
8F
330
1F
100
AcDbEntity
  8
BLOCCO_stool_8500-00--2D
100
AcDbSpline
210
0.0
220
0.0
230
1.0
 70
     8
 71
     5
 72
    12
 73
     6
 74
     0
 42
0.0000000001
 43
0.0000000001
 40
-1.0
 40
-1.0
 40
-1.0
 40
-1.0
 40
-1.0
 40
-1.0
 40
0.0
 40
0.0
 40
0.0
 40
0.0
 40
0.0
 40
0.0
 10
-176.9014756839633
 20
489.3203581803112
 30
0.0
 10
-176.9014459862424
 20
489.3207944628395
 30
0.0
 10
-176.9014162090284
 20
489.3212307399568
 30
0.0
 10
-176.9013806531707
 20
489.3216666155628
 30
0.0
 10
-176.9013509481933
 20
489.3221028975971
 30
0.0
 10
-176.901321243216
 20
489.3225391796314
 30
0.0
  0
SPLINE
  5
90
330
1F
100
AcDbEntity
  8
BLOCCO_stool_8500-00--2D
100
AcDbSpline
210
0.0
220
0.0
230
1.0
 70
    24
 71
     2
 72
     6
 73
     3
 74
     0
 42
0.0000000001
 43
0.0000000001
 40
0.0
 40
0.0
 40
0.0
 40
726.4721328106198
 40
726.4721328106198
 40
726.4721328106198
 10
-176.901321243216
 20
489.3225391796314
 30
0.0
 10
-152.2269248767079
 20
851.7195784908697
 30
0.0
 10
-127.5525285101998
 20
1214.116617802108
 30
0.0
  0
SPLINE
  5
91
330
1F
100
AcDbEntity
  8
BLOCCO_stool_8500-00--2D
100
AcDbSpline
210
0.0
220
0.0
230
1.0
 70
    12
 71
     3
 72
    11
 73
     7
 74
     0
 42
0.0000000001
 43
0.0000000001
 40
0.37118460102435
 40
0.37118460102435
 40
0.37118460102435
 40
0.37118460102435
 40
0.7853981633974501
 40
0.7853981633974501
 40
0.7853981633974501
 40
1.19961172577054
 40
1.19961172577054
 40
1.19961172577054
 40
1.19961172577054
 10
-158.4014185245205
 20
484.1166179299488
 30
0.0
 41
1.0
 10
-158.5753222659936
 20
484.1166179299488
 30
0.0
 41
0.9512775218855825
 10
-158.7421933202463
 20
484.2142490028866
 30
0.0
 41
0.9485864075433493
 10
-158.8721945223365
 20
484.4095111487622
 30
0.0
 41
1.0
 10
-159.0021957244267
 20
484.6047732946378
 30
0.0
 41
0.9485864075433507
 10
-159.0671963254717
 20
484.855414054985
 30
0.0
 41
0.9512775218855825
 10
-159.0671963254717
 20
485.1166179299488
 30
0.0
 41
1.0
  0
SPLINE
  5
92
330
1F
100
AcDbEntity
  8
BLOCCO_stool_8500-00--2D
100
AcDbSpline
210
0.0
220
0.0
230
1.0
 70
    24
 71
     2
 72
     6
 73
     3
 74
     0
 42
0.0000000001
 43
0.0000000001
 40
-1.0
 40
-1.0
 40
-1.0
 40
0.0
 40
0.0
 40
0.0
 10
-159.0671963254717
 20
485.1166179299488
 30
0.0
 10
-159.0671963254717
 20
485.6166179299488
 30
0.0
 10
-159.0671963254717
 20
486.1166179299488
 30
0.0
  0
SPLINE
  5
93
330
1F
100
AcDbEntity
  8
BLOCCO_stool_8500-00--2D
100
AcDbSpline
210
0.0
220
0.0
230
1.0
 70
    24
 71
     2
 72
     6
 73
     3
 74
     0
 42
0.0000000001
 43
0.0000000001
 40
0.0
 40
0.0
 40
0.0
 40
1.0
 40
1.0
 40
1.0
 10
-172.7965725654831
 20
486.1166179299488
 30
0.0
 10
-172.7968756701029
 20
485.6166179299488
 30
0.0
 10
-172.7971787747228
 20
485.1166179299488
 30
0.0
  0
SPLINE
  5
94
330
1F
100
AcDbEntity
  8
BLOCCO_stool_8500-00--2D
100
AcDbSpline
210
0.0
220
0.0
230
1.0
 70
    12
 71
     2
 72
     6
 73
     3
 74
     0
 42
0.0000000001
 43
0.0000000001
 40
-1.570793873243079
 40
-1.570793873243079
 40
-1.570793873243079
 40
0.0
 40
0.0
 40
0.0
 10
-172.7971787747229
 20
485.1166179299487
 30
0.0
 41
0.9999999991992334
 10
-172.7977817949158
 20
484.1166222026894
 30
0.0
 41
0.7071094190499073
 10
-171.7977860695937
 20
484.1166179299493
 30
0.0
 41
1.0
  0
POLYLINE
  5
95
330
1F
100
AcDbEntity
  8
BLOCCO_stool_8500-00--2D
100
AcDb2dPolyline
 66
     1
 10
0.0
 20
0.0
 30
0.0
  0
VERTEX
  5
96
330
95
100
AcDbEntity
  8
BLOCCO_stool_8500-00--2D
100
AcDbVertex
100
AcDb2dVertex
 10
-171.7977860695937
 20
484.1166179299493
 30
0.0
  0
VERTEX
  5
97
330
95
100
AcDbEntity
  8
BLOCCO_stool_8500-00--2D
100
AcDbVertex
100
AcDb2dVertex
 10
-142.4580999189284
 20
484.1166179299488
 30
0.0
  0
SEQEND
  5
98
330
95
100
AcDbEntity
  8
BLOCCO_stool_8500-00--2D
  0
SPLINE
  5
99
330
1F
100
AcDbEntity
  8
BLOCCO_stool_8500-00--2D
100
AcDbSpline
210
0.0
220
0.0
230
1.0
 70
    12
 71
     2
 72
     8
 73
     5
 74
     0
 42
0.0000000001
 43
0.0000000001
 40
0.0
 40
0.0
 40
0.0
 40
0.7853981633974549
 40
0.7853981633974549
 40
1.570796326794861
 40
1.570796326794861
 40
1.570796326794861
 10
-142.4580999189284
 20
484.1166179299488
 30
0.0
 41
1.0
 10
-142.043886356555
 20
484.1166179299488
 30
0.0
 41
0.9238795325112342
 10
-141.7509931377417
 20
484.4095111487622
 30
0.0
 41
1.0
 10
-141.4580999189282
 20
484.7024043675757
 30
0.0
 41
0.9238795325114288
 10
-141.4580999189284
 20
485.1166179299488
 30
0.0
 41
1.0
  0
SPLINE
  5
9A
330
1F
100
AcDbEntity
  8
BLOCCO_stool_8500-00--2D
100
AcDbSpline
210
0.0
220
0.0
230
1.0
 70
    24
 71
     2
 72
     6
 73
     3
 74
     0
 42
0.0000000001
 43
0.0000000001
 40
-1.0
 40
-1.0
 40
-1.0
 40
0.0
 40
0.0
 40
0.0
 10
-141.4580999189284
 20
485.1166179299488
 30
0.0
 10
-141.4580999189284
 20
485.6166179299488
 30
0.0
 10
-141.4580999189284
 20
486.1166179299488
 30
0.0
  0
SPLINE
  5
9B
330
1F
100
AcDbEntity
  8
BLOCCO_stool_8500-00--2D
100
AcDbSpline
210
0.0
220
0.0
230
1.0
 70
    24
 71
     2
 72
     6
 73
     3
 74
     0
 42
0.0000000001
 43
0.0000000001
 40
0.0
 40
0.0
 40
0.0
 40
21.8698918630007
 40
21.8698918630007
 40
21.8698918630007
 10
156.1489082138441
 20
794.1166179300237
 30
0.0
 10
167.0838541453445
 20
794.1166179300237
 30
0.0
 10
178.0188000768448
 20
794.1166179300237
 30
0.0
  0
SPLINE
  5
9C
330
1F
100
AcDbEntity
  8
BLOCCO_stool_8500-00--2D
100
AcDbSpline
210
0.0
220
0.0
230
1.0
 70
    24
 71
     2
 72
     6
 73
     3
 74
     0
 42
0.0000000001
 43
0.0000000001
 40
0.0
 40
0.0
 40
0.0
 40
233.4248539585875
 40
233.4248539585875
 40
233.4248539585875
 10
-116.7124180977353
 20
794.1166179300237
 30
0.0
 10
0.0000088815586423
 20
794.1166179300237
 30
0.0
 10
116.7124358608525
 20
794.1166179300237
 30
0.0
  0
SPLINE
  5
9D
330
1F
100
AcDbEntity
  8
BLOCCO_stool_8500-00--2D
100
AcDbSpline
210
0.0
220
0.0
230
1.0
 70
    24
 71
     2
 72
     6
 73
     3
 74
     0
 42
0.0000000001
 43
0.0000000001
 40
0.0
 40
0.0
 40
0.0
 40
21.86988523404762
 40
21.86988523404762
 40
21.86988523404762
 10
-178.018802086955
 20
794.1166179300237
 30
0.0
 10
-167.0838594699312
 20
794.1166179300237
 30
0.0
 10
-156.1489168529074
 20
794.1166179300237
 30
0.0
  0
SPLINE
  5
9E
330
1F
100
AcDbEntity
  8
BLOCCO_stool_8500-00--2D
100
AcDbSpline
210
0.0
220
0.0
230
1.0
 70
    24
 71
     2
 72
     6
 73
     3
 74
     0
 42
0.0000000001
 43
0.0000000001
 40
0.0
 40
0.0
 40
0.0
 40
20.5087114555588
 40
20.5087114555588
 40
20.5087114555588
 10
157.5106409921918
 20
774.1166179300237
 30
0.0
 10
167.7649967199713
 20
774.1166179300237
 30
0.0
 10
178.0193524477508
 20
774.1166179300237
 30
0.0
  0
SPLINE
  5
9F
330
1F
100
AcDbEntity
  8
BLOCCO_stool_8500-00--2D
100
AcDbSpline
210
0.0
220
0.0
230
1.0
 70
    24
 71
     2
 72
     6
 73
     3
 74
     0
 42
0.0000000001
 43
0.0000000001
 40
0.0
 40
0.0
 40
0.0
 40
235.5737107373358
 40
235.5737107373358
 40
235.5737107373358
 10
-117.7868583735953
 20
774.1166179300234
 30
0.0
 10
-0.0000030049277484
 20
774.1166179300236
 30
0.0
 10
117.7868523637398
 20
774.1166179300237
 30
0.0
  0
SPLINE
  5
A0
330
1F
100
AcDbEntity
  8
BLOCCO_stool_8500-00--2D
100
AcDbSpline
210
0.0
220
0.0
230
1.0
 70
    24
 71
     2
 72
     6
 73
     3
 74
     0
 42
0.0000000001
 43
0.0000000001
 40
0.0
 40
0.0
 40
0.0
 40
20.50874912265181
 40
20.50874912265181
 40
20.50874912265181
 10
-178.0193987552729
 20
774.1166179300237
 30
0.0
 10
-167.765024193947
 20
774.1166179300237
 30
0.0
 10
-157.5106496326211
 20
774.1166179300237
 30
0.0
  0
SPLINE
  5
A1
330
1F
100
AcDbEntity
  8
BLOCCO_stool_8500-00--2D
100
AcDbSpline
210
0.0
220
0.0
230
1.0
 70
    12
 71
     2
 72
    12
 73
     9
 74
     0
 42
0.0000000001
 43
0.0000000001
 40
0.0
 40
0.0
 40
0.0
 40
7.854076524665919
 40
7.854076524665919
 40
15.70815304933184
 40
15.70815304933184
 40
23.56222957399776
 40
23.56222957399776
 40
31.41630609866368
 40
31.41630609866368
 40
31.41630609866368
 10
178.0195421653852
 20
774.1166152854494
 30
0.0
 41
1.0
 10
182.1617332528252
 20
774.116692089791
 30
0.0
 41
0.9238777566151343
 10
185.09062316577
 20
777.0457449893838
 30
0.0
 41
1.0
 10
188.0195130787154
 20
779.9747978889767
 30
0.0
 41
0.9238777566151343
 10
188.019359385129
 20
784.1169889742773
 30
0.0
 41
1.0
 10
188.0192056915429
 20
788.259180059578
 30
0.0
 41
0.9238777566151343
 10
185.0900984250611
 20
791.1880156015995
 30
0.0
 41
1.0
 10
182.1609911585795
 20
794.1168511436211
 30
0.0
 41
0.9238777566151343
 10
178.0188000768457
 20
794.1166205607903
 30
0.0
 41
1.0
  0
SPLINE
  5
A2
330
1F
100
AcDbEntity
  8
BLOCCO_stool_8500-00--2D
100
AcDbSpline
210
0.0
220
0.0
230
1.0
 70
    12
 71
     2
 72
    12
 73
     9
 74
     0
 42
0.0000000001
 43
0.0000000001
 40
0.0
 40
0.0
 40
0.0
 40
7.854072362598937
 40
7.854072362598937
 40
15.70814472519787
 40
15.70814472519787
 40
23.56221708779681
 40
23.56221708779681
 40
31.41628945039575
 40
31.41628945039575
 40
31.41628945039575
 10
-178.0188020869545
 20
794.116615268045
 30
0.0
 41
1.0
 10
-182.160990973241
 20
794.1168475083018
 30
0.0
 41
0.9238777567156979
 10
-185.0900978608488
 20
791.1880146922166
 30
0.0
 41
1.0
 10
-188.0192047484565
 20
788.2591818761311
 30
0.0
 41
0.9238777567156979
 10
-188.0193601038636
 20
784.1169929862478
 30
0.0
 41
1.0
 10
-188.0195154592707
 20
779.9748040963643
 30
0.0
 41
0.9238777567156979
 10
-185.0906282753476
 20
777.0457515725163
 30
0.0
 41
1.0
 10
-182.1617410914249
 20
774.1166990486683
 30
0.0
 41
0.9238777567156979
 10
-178.019552199371
 20
774.1166205781112
 30
0.0
 41
1.0
  0
SPLINE
  5
A3
330
1F
100
AcDbEntity
  8
BLOCCO_stool_8500-00--2D
100
AcDbSpline
210
0.0
220
0.0
230
1.0
 70
    12
 71
     2
 72
    12
 73
     9
 74
     0
 42
0.0000000001
 43
0.0000000001
 40
0.0
 40
0.0
 40
0.0
 40
0.3926990816987073
 40
0.3926990816987073
 40
0.7853981633973948
 40
0.7853981633973948
 40
1.178097245096191
 40
1.178097245096191
 40
1.57079632679491
 40
1.57079632679491
 40
1.57079632679491
 10
1114.30505339027
 20
484.1171439303927
 30
0.0
 41
1.0
 10
1114.503965757649
 20
484.1171439303929
 30
0.0
 41
0.9807852804032226
 10
1114.687736822635
 20
484.1932643978815
 30
0.0
 41
1.0
 10
1114.87150788762
 20
484.2693848653703
 30
0.0
 41
0.9807852804032322
 10
1115.012160171457
 20
484.4100371492062
 30
0.0
 41
1.0
 10
1115.152812455294
 20
484.5506894330423
 30
0.0
 41
0.9807852804032368
 10
1115.228932922782
 20
484.7344604980277
 30
0.0
 41
1.0
 10
1115.305053390271
 20
484.9182315630132
 30
0.0
 41
0.9807852804032183
 10
1115.30505339027
 20
485.1171439303928
 30
0.0
 41
1.0
  0
POLYLINE
  5
A4
330
1F
100
AcDbEntity
  8
BLOCCO_stool_8500-00--2D
100
AcDb2dPolyline
 66
     1
 10
0.0
 20
0.0
 30
0.0
  0
VERTEX
  5
A5
330
A4
100
AcDbEntity
  8
BLOCCO_stool_8500-00--2D
100
AcDbVertex
100
AcDb2dVertex
 10
1115.30505339027
 20
485.1171439303928
 30
0.0
  0
VERTEX
  5
A6
330
A4
100
AcDbEntity
  8
BLOCCO_stool_8500-00--2D
100
AcDbVertex
100
AcDb2dVertex
 10
1115.305053384274
 20
486.1171477311022
 30
0.0
  0
SEQEND
  5
A7
330
A4
100
AcDbEntity
  8
BLOCCO_stool_8500-00--2D
  0
POLYLINE
  5
A8
330
1F
100
AcDbEntity
  8
BLOCCO_stool_8500-00--2D
100
AcDb2dPolyline
 66
     1
 10
0.0
 20
0.0
 30
0.0
  0
VERTEX
  5
A9
330
A8
100
AcDbEntity
  8
BLOCCO_stool_8500-00--2D
100
AcDbVertex
100
AcDb2dVertex
 10
1114.300379402155
 20
484.1171439303927
 30
0.0
  0
VERTEX
  5
AA
330
A8
100
AcDbEntity
  8
BLOCCO_stool_8500-00--2D
100
AcDbVertex
100
AcDb2dVertex
 10
1092.213377289232
 20
484.1171439303927
 30
0.0
  0
SEQEND
  5
AB
330
A8
100
AcDbEntity
  8
BLOCCO_stool_8500-00--2D
  0
SPLINE
  5
AC
330
1F
100
AcDbEntity
  8
BLOCCO_stool_8500-00--2D
100
AcDbSpline
210
0.0
220
0.0
230
1.0
 70
    12
 71
     2
 72
     8
 73
     5
 74
     0
 42
0.0000000001
 43
0.0000000001
 40
-0.7853981633975704
 40
-0.7853981633975704
 40
-0.7853981633975704
 40
-0.3926990816987544
 40
-0.3926990816987544
 40
0.0
 40
0.0
 40
0.0
 10
1092.213377289232
 20
484.1171439303927
 30
0.0
 41
1.0
 10
1092.014464921853
 20
484.1171439303929
 30
0.0
 41
0.9807852804032496
 10
1091.830693856867
 20
484.1932643978815
 30
0.0
 41
1.0
 10
1091.646922791881
 20
484.2693848653701
 30
0.0
 41
0.9807852804032256
 10
1091.506270508046
 20
484.4100371492063
 30
0.0
 41
1.0
  0
SPLINE
  5
AD
330
1F
100
AcDbEntity
  8
BLOCCO_stool_8500-00--2D
100
AcDbSpline
210
0.0
220
0.0
230
1.0
 70
    12
 71
     2
 72
     8
 73
     5
 74
     0
 42
0.0000000001
 43
0.0000000001
 40
-0.7853981633974212
 40
-0.7853981633974212
 40
-0.7853981633974212
 40
-0.3926990816986868
 40
-0.3926990816986868
 40
0.0
 40
0.0
 40
0.0
 10
1091.506270508046
 20
484.4100371492063
 30
0.0
 41
1.0
 10
1091.36561822421
 20
484.5506894330423
 30
0.0
 41
0.9807852804033194
 10
1091.28949775672
 20
484.7344604980277
 30
0.0
 41
1.0
 10
1091.213377289232
 20
484.9182315630132
 30
0.0
 41
0.9807852804033268
 10
1091.213377289232
 20
485.1171439303928
 30
0.0
 41
1.0
  0
SPLINE
  5
AE
330
1F
100
AcDbEntity
  8
BLOCCO_stool_8500-00--2D
100
AcDbSpline
210
0.0
220
0.0
230
1.0
 70
    24
 71
     2
 72
     6
 73
     3
 74
     0
 42
0.0000000001
 43
0.0000000001
 40
0.0
 40
0.0
 40
0.0
 40
1.0
 40
1.0
 40
1.0
 10
1091.213377289232
 20
485.1171439303928
 30
0.0
 10
1091.213377289232
 20
485.6171439303928
 30
0.0
 10
1091.213377289232
 20
486.1171439303928
 30
0.0
  0
SPLINE
  5
AF
330
1F
100
AcDbEntity
  8
BLOCCO_stool_8500-00--2D
100
AcDbSpline
210
0.0
220
0.0
230
1.0
 70
    12
 71
     2
 72
    12
 73
     9
 74
     0
 42
0.0000000001
 43
0.0000000001
 40
0.0
 40
0.0
 40
0.0
 40
0.2770406638441908
 40
0.2770406638441908
 40
0.5902373961792817
 40
0.5902373961792817
 40
0.9487399036390806
 40
0.9487399036390806
 40
1.336202734380564
 40
1.336202734380564
 40
1.336202734380564
 10
1113.422543217824
 20
484.1171439303927
 30
0.0
 41
1.0
 10
1113.56462009266
 20
484.1183372128694
 30
0.0
 41
0.9628202993425032
 10
1113.685339516254
 20
484.1932643978815
 30
0.0
 41
1.0
 10
1113.820115914458
 20
484.2776195122059
 30
0.0
 41
0.9775118004740795
 10
1113.908127460502
 20
484.4100371492062
 30
0.0
 41
1.0
 10
1114.008986852741
 20
484.5601221490944
 30
0.0
 41
0.9869862567089956
 10
1114.056989605634
 20
484.7344604980277
 30
0.0
 41
1.0
 10
1114.109668171332
 20
484.9221766755567
 30
0.0
 41
0.9905158109185943
 10
1114.109263039493
 20
485.1171439303928
 30
0.0
 41
1.0
  0
SPLINE
  5
B0
330
1F
100
AcDbEntity
  8
BLOCCO_stool_8500-00--2D
100
AcDbSpline
210
0.0
220
0.0
230
1.0
 70
    24
 71
     2
 72
     6
 73
     3
 74
     0
 42
0.0000000001
 43
0.0000000001
 40
-1.0
 40
-1.0
 40
-1.0
 40
0.0
 40
0.0
 40
0.0
 10
1114.109263039493
 20
485.1171439303928
 30
0.0
 10
1114.109263039493
 20
485.6171439303928
 30
0.0
 10
1114.109263039493
 20
486.1171439303928
 30
0.0
  0
SPLINE
  5
B1
330
1F
100
AcDbEntity
  8
BLOCCO_stool_8500-00--2D
100
AcDbSpline
210
0.0
220
0.0
230
1.0
 70
    24
 71
     2
 72
     6
 73
     3
 74
     0
 42
0.0000000001
 43
0.0000000001
 40
0.0
 40
0.0
 40
0.0
 40
421.6440790585465
 40
421.6440790585465
 40
421.6440790585465
 10
1018.365952594798
 20
1214.117143930397
 30
0.0
 10
1038.57234962133
 20
1004.265687250943
 30
0.0
 10
1058.778746647861
 20
794.4142305714897
 30
0.0
  0
SPLINE
  5
B2
330
1F
100
AcDbEntity
  8
BLOCCO_stool_8500-00--2D
100
AcDbSpline
210
0.0
220
0.0
230
1.0
 70
     8
 71
     3
 72
    14
 73
    10
 74
     0
 42
0.0000000001
 43
0.0000000001
 40
0.0
 40
0.0
 40
0.0
 40
0.0
 40
0.0067919548274357
 40
0.1305272860383143
 40
0.212980183934083
 40
0.3927842460078457
 40
0.7753971163877745
 40
1.553602446039679
 40
3.148844788167115
 40
3.148844788167115
 40
3.148844788167115
 40
3.148844788167115
 10
1058.778746647861
 20
794.4142305714897
 30
0.0
 10
1058.780990894599
 20
794.4139317002043
 30
0.0
 10
1058.824458863756
 20
794.4120273255127
 30
0.0
 10
1058.895382470708
 20
794.4088334355894
 30
0.0
 10
1059.023840257934
 20
794.4015713080623
 30
0.0
 10
1059.238262694693
 20
794.3861939020726
 30
0.0
 10
1059.682888378842
 20
794.3405816787105
 30
0.0
 10
1060.590159186833
 20
794.19153125253
 30
0.0
 10
1061.352980767149
 20
793.9733959951499
 30
0.0
 10
1061.852586629093
 20
793.7914733794589
 30
0.0
  0
SPLINE
  5
B3
330
1F
100
AcDbEntity
  8
BLOCCO_stool_8500-00--2D
100
AcDbSpline
210
0.0
220
0.0
230
1.0
 70
     8
 71
     3
 72
    15
 73
    11
 74
     0
 42
0.0000000001
 43
0.0000000001
 40
0.0
 40
0.0
 40
0.0
 40
0.0
 40
2.954586572683216
 40
5.784082060623966
 40
8.629503902582193
 40
11.56437676960426
 40
14.49335163622162
 40
17.34509062417885
 40
20.33429673076986
 40
23.19580231110327
 40
23.19580231110327
 40
23.19580231110327
 40
23.19580231110327
 10
1061.852586629093
 20
793.7914733794589
 30
0.0
 10
1062.778019410039
 20
793.454622505513
 30
0.0
 10
1064.494947182052
 20
792.5346748393161
 30
0.0
 10
1066.575774237842
 20
790.5094562213291
 30
0.0
 10
1068.02456606384
 20
788.0001884331025
 30
0.0
 10
1068.728829238112
 20
785.152974680461
 30
0.0
 10
1068.602059694072
 20
782.2208919761371
 30
0.0
 10
1067.660810353935
 20
779.4232255014904
 30
0.0
 10
1065.984947288074
 20
777.0180796903832
 30
0.0
 10
1064.451922157495
 20
775.7821168160448
 30
0.0
 10
1063.633915406507
 20
775.2916666957387
 30
0.0
  0
SPLINE
  5
B4
330
1F
100
AcDbEntity
  8
BLOCCO_stool_8500-00--2D
100
AcDbSpline
210
0.0
220
0.0
230
1.0
 70
     8
 71
     3
 72
    18
 73
    14
 74
     0
 42
0.0000000001
 43
0.0000000001
 40
0.0
 40
0.0
 40
0.0
 40
0.0
 40
0.3689706308608244
 40
0.7739461695982069
 40
1.560284753323193
 40
2.277330793379872
 40
2.59427550288188
 40
2.801248154399745
 40
3.046711958151978
 40
3.094522847479428
 40
3.143137741923292
 40
3.154572041897182
 40
3.157844605016383
 40
3.157844605016383
 40
3.157844605016383
 40
3.157844605016383
 10
1063.633915406507
 20
775.2916666957387
 30
0.0
 10
1063.52843347869
 20
775.2284218730619
 30
0.0
 10
1063.305099685293
 20
775.0992133017635
 30
0.0
 10
1062.846364319637
 20
774.8539761557645
 30
0.0
 10
1062.270064201488
 20
774.5837387080334
 30
0.0
 10
1061.704119405411
 20
774.3640069568118
 30
0.0
 10
1061.311826677888
 20
774.2326672288541
 30
0.0
 10
1061.066921104979
 20
774.1565270407789
 30
0.0
 10
1060.906829902996
 20
774.1098498247261
 30
0.0
 10
1060.797576159402
 20
774.0774517777497
 30
0.0
 10
1060.763321312799
 20
774.066462021704
 30
0.0
 10
1060.743642186704
 20
774.0588559721238
 30
0.0
 10
1060.73944161501
 20
774.05613241839
 30
0.0
 10
1060.739113568178
 20
774.0550416812268
 30
0.0
  0
SPLINE
  5
B5
330
1F
100
AcDbEntity
  8
BLOCCO_stool_8500-00--2D
100
AcDbSpline
210
0.0
220
0.0
230
1.0
 70
    24
 71
     2
 72
     6
 73
     3
 74
     0
 42
0.0000000001
 43
0.0000000001
 40
0.0
 40
0.0
 40
0.0
 40
286.5446296420719
 40
286.5446296420719
 40
286.5446296420719
 10
1060.739113568178
 20
774.0550416812268
 30
0.0
 10
1074.471156397515
 20
631.442324177102
 30
0.0
 10
1088.203199226851
 20
488.8296066729772
 30
0.0
  0
SPLINE
  5
B6
330
1F
100
AcDbEntity
  8
BLOCCO_stool_8500-00--2D
100
AcDbSpline
210
0.0
220
0.0
230
1.0
 70
    12
 71
     2
 72
     6
 73
     3
 74
     0
 42
0.0000000001
 43
0.0000000001
 40
-4.424409653805651
 40
-4.424409653805651
 40
-4.424409653805651
 40
0.0
 40
0.0
 40
0.0
 10
1088.203199226851
 20
488.8296066729772
 30
0.0
 41
1.0
 10
1088.464379682593
 20
486.1171439305381
 30
0.0
 41
0.7402181274868563
 10
1091.189387821954
 20
486.1171439305378
 30
0.0
 41
1.0
  0
POLYLINE
  5
B7
330
1F
100
AcDbEntity
  8
BLOCCO_stool_8500-00--2D
100
AcDb2dPolyline
 66
     1
 10
0.0
 20
0.0
 30
0.0
  0
VERTEX
  5
B8
330
B7
100
AcDbEntity
  8
BLOCCO_stool_8500-00--2D
100
AcDbVertex
100
AcDb2dVertex
 10
1091.189387821954
 20
486.1171439305378
 30
0.0
  0
VERTEX
  5
B9
330
B7
100
AcDbEntity
  8
BLOCCO_stool_8500-00--2D
100
AcDbVertex
100
AcDb2dVertex
 10
1115.305053384274
 20
486.1171477311022
 30
0.0
  0
SEQEND
  5
BA
330
B7
100
AcDbEntity
  8
BLOCCO_stool_8500-00--2D
  0
SPLINE
  5
BB
330
1F
100
AcDbEntity
  8
BLOCCO_stool_8500-00--2D
100
AcDbSpline
210
0.0
220
0.0
230
1.0
 70
    12
 71
     2
 72
     8
 73
     5
 74
     0
 42
0.0000000001
 43
0.0000000001
 40
0.0
 40
0.0
 40
0.0
 40
2.497845196680617
 40
2.497845196680617
 40
4.995690393361235
 40
4.995690393361235
 40
4.995690393361235
 10
1115.305053384274
 20
486.1171477311022
 30
0.0
 41
1.0
 10
1116.63150416269
 20
486.1192183742809
 30
0.0
 41
0.9145888815391323
 10
1117.522601798569
 20
487.1017767483516
 30
0.0
 41
1.0
 10
1118.413699434447
 20
488.0843351224221
 30
0.0
 41
0.9145888815391323
 10
1118.28656043515
 20
489.4046839214761
 30
0.0
 41
1.0
  0
SPLINE
  5
BC
330
1F
100
AcDbEntity
  8
BLOCCO_stool_8500-00--2D
100
AcDbSpline
210
0.0
220
0.0
230
1.0
 70
    24
 71
     2
 72
     6
 73
     3
 74
     0
 42
0.0000000001
 43
0.0000000001
 40
0.0
 40
0.0
 40
0.0
 40
728.0643210331962
 40
728.0643210331962
 40
728.0643210331962
 10
1118.28656043515
 20
489.4046839214761
 30
0.0
 10
1083.395619685572
 20
851.7609139259365
 30
0.0
 10
1048.504678935993
 20
1214.117143930397
 30
0.0
  0
SPLINE
  5
BD
330
1F
100
AcDbEntity
  8
BLOCCO_stool_8500-00--2D
100
AcDbSpline
210
0.0
220
0.0
230
1.0
 70
    24
 71
     2
 72
     6
 73
     3
 74
     0
 42
0.0000000001
 43
0.0000000001
 40
0.0
 40
0.0
 40
0.0
 40
728.3531932656205
 40
728.3531932656205
 40
728.3531932656205
 10
1045.052821914838
 20
1214.117143575731
 30
0.0
 10
1079.957601869364
 20
851.6171437531347
 30
0.0
 10
1114.86238182389
 20
489.1171439305378
 30
0.0
  0
SPLINE
  5
BE
330
1F
100
AcDbEntity
  8
BLOCCO_stool_8500-00--2D
100
AcDbSpline
210
0.0
220
0.0
230
1.0
 70
    12
 71
     2
 72
     6
 73
     3
 74
     0
 42
0.0000000001
 43
0.0000000001
 40
-4.707297586214882
 40
-4.707297586214882
 40
-4.707297586214882
 40
0.0
 40
0.0
 40
0.0
 10
868.913719900153
 20
486.1171482509193
 30
0.0
 41
1.0
 10
865.9188112918783
 20
486.1283748568144
 30
0.0
 41
0.707706553090766
 10
865.9188112918787
 20
489.123287778144
 30
0.0
 41
1.0
  0
SPLINE
  5
BF
330
1F
100
AcDbEntity
  8
BLOCCO_stool_8500-00--2D
100
AcDbSpline
210
0.0
220
0.0
230
1.0
 70
    24
 71
     2
 72
     6
 73
     3
 74
     0
 42
0.0000000001
 43
0.0000000001
 40
-724.993856152253
 40
-724.993856152253
 40
-724.993856152253
 40
0.0
 40
0.0
 40
0.0
 10
865.9188112918787
 20
489.123287778144
 30
0.0
 10
865.9188112918787
 20
851.6202158542705
 30
0.0
 10
865.9188112918787
 20
1214.117143930397
 30
0.0
  0
SPLINE
  5
C0
330
1F
100
AcDbEntity
  8
BLOCCO_stool_8500-00--2D
100
AcDbSpline
210
0.0
220
0.0
230
1.0
 70
    12
 71
     2
 72
     6
 73
     3
 74
     0
 42
0.0000000001
 43
0.0000000001
 40
-4.707297621851685
 40
-4.707297621851685
 40
-4.707297621851685
 40
0.0
 40
0.0
 40
0.0
 10
892.9239026479676
 20
486.1171482508588
 30
0.0
 41
1.0
 10
895.918811291879
 20
486.1283748153763
 30
0.0
 41
0.7077065488945041
 10
895.9188112918786
 20
489.1232877722822
 30
0.0
 41
1.0
  0
SPLINE
  5
C1
330
1F
100
AcDbEntity
  8
BLOCCO_stool_8500-00--2D
100
AcDbSpline
210
0.0
220
0.0
230
1.0
 70
    24
 71
     2
 72
     6
 73
     3
 74
     0
 42
0.0000000001
 43
0.0000000001
 40
-724.9938561581148
 40
-724.9938561581148
 40
-724.9938561581148
 40
0.0
 40
0.0
 40
0.0
 10
895.9188112918786
 20
489.1232877722822
 30
0.0
 10
895.9188112918786
 20
851.6202158513397
 30
0.0
 10
895.9188112918786
 20
1214.117143930397
 30
0.0
  0
POLYLINE
  5
C2
330
1F
100
AcDbEntity
  8
BLOCCO_stool_8500-00--2D
100
AcDb2dPolyline
 66
     1
 10
0.0
 20
0.0
 30
0.0
  0
VERTEX
  5
C3
330
C2
100
AcDbEntity
  8
BLOCCO_stool_8500-00--2D
100
AcDbVertex
100
AcDb2dVertex
 10
868.9188112918868
 20
486.1171439303928
 30
0.0
  0
VERTEX
  5
C4
330
C2
100
AcDbEntity
  8
BLOCCO_stool_8500-00--2D
100
AcDbVertex
100
AcDb2dVertex
 10
892.9188112918732
 20
486.1171439303928
 30
0.0
  0
SEQEND
  5
C5
330
C2
100
AcDbEntity
  8
BLOCCO_stool_8500-00--2D
  0
SPLINE
  5
C6
330
1F
100
AcDbEntity
  8
BLOCCO_stool_8500-00--2D
100
AcDbSpline
210
0.0
220
0.0
230
1.0
 70
    24
 71
     2
 72
     6
 73
     3
 74
     0
 42
0.0000000001
 43
0.0000000001
 40
0.0
 40
0.0
 40
0.0
 40
1.0
 40
1.0
 40
1.0
 10
868.9188112918868
 20
486.1171439303928
 30
0.0
 10
868.9188112918868
 20
485.6171439303928
 30
0.0
 10
868.9188112918868
 20
485.1171439303928
 30
0.0
  0
SPLINE
  5
C7
330
1F
100
AcDbEntity
  8
BLOCCO_stool_8500-00--2D
100
AcDbSpline
210
0.0
220
0.0
230
1.0
 70
    12
 71
     2
 72
     8
 73
     5
 74
     0
 42
0.0000000001
 43
0.0000000001
 40
-0.7853981633974293
 40
-0.7853981633974293
 40
-0.7853981633974293
 40
-0.3926990816987183
 40
-0.3926990816987183
 40
0.0
 40
0.0
 40
0.0
 10
868.9188112918868
 20
485.1171439303928
 30
0.0
 41
1.0
 10
868.9188112918868
 20
484.9182315630131
 30
0.0
 41
0.9807852804030662
 10
868.9949317593759
 20
484.7344604980277
 30
0.0
 41
1.0
 10
869.0710522268645
 20
484.5506894330423
 30
0.0
 41
0.9807852804032526
 10
869.2117045107002
 20
484.4100371492062
 30
0.0
 41
1.0
  0
SPLINE
  5
C8
330
1F
100
AcDbEntity
  8
BLOCCO_stool_8500-00--2D
100
AcDbSpline
210
0.0
220
0.0
230
1.0
 70
    12
 71
     2
 72
     8
 73
     5
 74
     0
 42
0.0000000001
 43
0.0000000001
 40
-0.7853981633975482
 40
-0.7853981633975482
 40
-0.7853981633975482
 40
-0.3926990816987055
 40
-0.3926990816987055
 40
0.0
 40
0.0
 40
0.0
 10
869.2117045107002
 20
484.4100371492062
 30
0.0
 41
1.0
 10
869.3523567945359
 20
484.26938486537
 30
0.0
 41
0.9807852804031865
 10
869.5361278595223
 20
484.1932643978815
 30
0.0
 41
1.0
 10
869.719898924507
 20
484.1171439303929
 30
0.0
 41
0.9807852804032206
 10
869.9188112918868
 20
484.1171439303927
 30
0.0
 41
1.0
  0
POLYLINE
  5
C9
330
1F
100
AcDbEntity
  8
BLOCCO_stool_8500-00--2D
100
AcDb2dPolyline
 66
     1
 10
0.0
 20
0.0
 30
0.0
  0
VERTEX
  5
CA
330
C9
100
AcDbEntity
  8
BLOCCO_stool_8500-00--2D
100
AcDbVertex
100
AcDb2dVertex
 10
869.9188112918868
 20
484.1171439303927
 30
0.0
  0
VERTEX
  5
CB
330
C9
100
AcDbEntity
  8
BLOCCO_stool_8500-00--2D
100
AcDbVertex
100
AcDb2dVertex
 10
891.9188112918705
 20
484.1171439303927
 30
0.0
  0
SEQEND
  5
CC
330
C9
100
AcDbEntity
  8
BLOCCO_stool_8500-00--2D
  0
SPLINE
  5
CD
330
1F
100
AcDbEntity
  8
BLOCCO_stool_8500-00--2D
100
AcDbSpline
210
0.0
220
0.0
230
1.0
 70
    12
 71
     2
 72
     8
 73
     5
 74
     0
 42
0.0000000001
 43
0.0000000001
 40
0.0
 40
0.0
 40
0.0
 40
0.3926990816988194
 40
0.3926990816988194
 40
0.7853981633975562
 40
0.7853981633975562
 40
0.7853981633975562
 10
891.9188112918705
 20
484.1171439303927
 30
0.0
 41
1.0
 10
892.1177236592505
 20
484.1171439303929
 30
0.0
 41
0.9807852804032254
 10
892.3014947242359
 20
484.1932643978815
 30
0.0
 41
1.0
 10
892.4852657892214
 20
484.2693848653703
 30
0.0
 41
0.98078528040324
 10
892.6259180730571
 20
484.4100371492062
 30
0.0
 41
1.0
  0
SPLINE
  5
CE
330
1F
100
AcDbEntity
  8
BLOCCO_stool_8500-00--2D
100
AcDbSpline
210
0.0
220
0.0
230
1.0
 70
    12
 71
     2
 72
     8
 73
     5
 74
     0
 42
0.0000000001
 43
0.0000000001
 40
0.0
 40
0.0
 40
0.0
 40
0.3926990816986895
 40
0.3926990816986895
 40
0.785398163397399
 40
0.785398163397399
 40
0.785398163397399
 10
892.6259180730571
 20
484.4100371492062
 30
0.0
 41
1.0
 10
892.7665703568932
 20
484.5506894330421
 30
0.0
 41
0.9807852804033005
 10
892.8426908243823
 20
484.7344604980277
 30
0.0
 41
1.0
 10
892.91881129187
 20
484.9182315630131
 30
0.0
 41
0.980785280403294
 10
892.9188112918705
 20
485.1171439303928
 30
0.0
 41
1.0
  0
SPLINE
  5
CF
330
1F
100
AcDbEntity
  8
BLOCCO_stool_8500-00--2D
100
AcDbSpline
210
0.0
220
0.0
230
1.0
 70
    24
 71
     2
 72
     6
 73
     3
 74
     0
 42
0.0000000001
 43
0.0000000001
 40
-1.0
 40
-1.0
 40
-1.0
 40
0.0
 40
0.0
 40
0.0
 10
892.9188112918705
 20
485.1171439303928
 30
0.0
 10
892.9188112918719
 20
485.6171439303928
 30
0.0
 10
892.9188112918732
 20
486.1171439303928
 30
0.0
  0
SPLINE
  5
D0
330
1F
100
AcDbEntity
  8
BLOCCO_stool_8500-00--2D
100
AcDbSpline
210
0.0
220
0.0
230
1.0
 70
    12
 71
     2
 72
    12
 73
     9
 74
     0
 42
0.0000000001
 43
0.0000000001
 40
0.0
 40
0.0
 40
0.0
 40
0.3926990816987073
 40
0.3926990816987073
 40
0.7853981633973948
 40
0.7853981633973948
 40
1.178097245096191
 40
1.178097245096191
 40
1.57079632679491
 40
1.57079632679491
 40
1.57079632679491
 10
647.5325353415869
 20
484.1171439303927
 30
0.0
 41
1.0
 10
647.3336229742072
 20
484.1171439303929
 30
0.0
 41
0.9807852804032226
 10
647.1498519092214
 20
484.1932643978815
 30
0.0
 41
1.0
 10
646.9660808442366
 20
484.2693848653703
 30
0.0
 41
0.9807852804032322
 10
646.8254285604002
 20
484.4100371492062
 30
0.0
 41
1.0
 10
646.6847762765639
 20
484.5506894330423
 30
0.0
 41
0.9807852804032368
 10
646.6086558090751
 20
484.7344604980277
 30
0.0
 41
1.0
 10
646.5325353415864
 20
484.9182315630132
 30
0.0
 41
0.9807852804032183
 10
646.5325353415869
 20
485.1171439303928
 30
0.0
 41
1.0
  0
POLYLINE
  5
D1
330
1F
100
AcDbEntity
  8
BLOCCO_stool_8500-00--2D
100
AcDb2dPolyline
 66
     1
 10
0.0
 20
0.0
 30
0.0
  0
VERTEX
  5
D2
330
D1
100
AcDbEntity
  8
BLOCCO_stool_8500-00--2D
100
AcDbVertex
100
AcDb2dVertex
 10
646.5325353415869
 20
485.1171439303928
 30
0.0
  0
VERTEX
  5
D3
330
D1
100
AcDbEntity
  8
BLOCCO_stool_8500-00--2D
100
AcDbVertex
100
AcDb2dVertex
 10
646.5325353475823
 20
486.1171477311022
 30
0.0
  0
SEQEND
  5
D4
330
D1
100
AcDbEntity
  8
BLOCCO_stool_8500-00--2D
  0
POLYLINE
  5
D5
330
1F
100
AcDbEntity
  8
BLOCCO_stool_8500-00--2D
100
AcDb2dPolyline
 66
     1
 10
0.0
 20
0.0
 30
0.0
  0
VERTEX
  5
D6
330
D5
100
AcDbEntity
  8
BLOCCO_stool_8500-00--2D
100
AcDbVertex
100
AcDb2dVertex
 10
647.5372093297023
 20
484.1171439303927
 30
0.0
  0
VERTEX
  5
D7
330
D5
100
AcDbEntity
  8
BLOCCO_stool_8500-00--2D
100
AcDbVertex
100
AcDb2dVertex
 10
669.6242114426245
 20
484.1171439303927
 30
0.0
  0
SEQEND
  5
D8
330
D5
100
AcDbEntity
  8
BLOCCO_stool_8500-00--2D
  0
SPLINE
  5
D9
330
1F
100
AcDbEntity
  8
BLOCCO_stool_8500-00--2D
100
AcDbSpline
210
0.0
220
0.0
230
1.0
 70
    12
 71
     2
 72
     8
 73
     5
 74
     0
 42
0.0000000001
 43
0.0000000001
 40
-0.7853981633975704
 40
-0.7853981633975704
 40
-0.7853981633975704
 40
-0.3926990816987544
 40
-0.3926990816987544
 40
0.0
 40
0.0
 40
0.0
 10
669.6242114426245
 20
484.1171439303927
 30
0.0
 41
1.0
 10
669.823123810004
 20
484.1171439303929
 30
0.0
 41
0.9807852804032496
 10
670.0068948749899
 20
484.1932643978815
 30
0.0
 41
1.0
 10
670.1906659399754
 20
484.2693848653701
 30
0.0
 41
0.9807852804032256
 10
670.3313182238112
 20
484.4100371492063
 30
0.0
 41
1.0
  0
SPLINE
  5
DA
330
1F
100
AcDbEntity
  8
BLOCCO_stool_8500-00--2D
100
AcDbSpline
210
0.0
220
0.0
230
1.0
 70
    12
 71
     2
 72
     8
 73
     5
 74
     0
 42
0.0000000001
 43
0.0000000001
 40
-0.7853981633974212
 40
-0.7853981633974212
 40
-0.7853981633974212
 40
-0.3926990816986868
 40
-0.3926990816986868
 40
0.0
 40
0.0
 40
0.0
 10
670.3313182238112
 20
484.4100371492063
 30
0.0
 41
1.0
 10
670.4719705076471
 20
484.5506894330423
 30
0.0
 41
0.9807852804033194
 10
670.5480909751363
 20
484.7344604980277
 30
0.0
 41
1.0
 10
670.6242114426245
 20
484.9182315630132
 30
0.0
 41
0.9807852804033268
 10
670.6242114426245
 20
485.1171439303928
 30
0.0
 41
1.0
  0
SPLINE
  5
DB
330
1F
100
AcDbEntity
  8
BLOCCO_stool_8500-00--2D
100
AcDbSpline
210
0.0
220
0.0
230
1.0
 70
    24
 71
     2
 72
     6
 73
     3
 74
     0
 42
0.0000000001
 43
0.0000000001
 40
0.0
 40
0.0
 40
0.0
 40
1.0
 40
1.0
 40
1.0
 10
670.6242114426245
 20
485.1171439303928
 30
0.0
 10
670.6242114426245
 20
485.6171439303928
 30
0.0
 10
670.6242114426245
 20
486.1171439303928
 30
0.0
  0
SPLINE
  5
DC
330
1F
100
AcDbEntity
  8
BLOCCO_stool_8500-00--2D
100
AcDbSpline
210
0.0
220
0.0
230
1.0
 70
    12
 71
     2
 72
    12
 73
     9
 74
     0
 42
0.0000000001
 43
0.0000000001
 40
0.0
 40
0.0
 40
0.0
 40
0.2770406638441908
 40
0.2770406638441908
 40
0.5902373961792817
 40
0.5902373961792817
 40
0.9487399036390806
 40
0.9487399036390806
 40
1.336202734380564
 40
1.336202734380564
 40
1.336202734380564
 10
648.4150455140329
 20
484.1171439303927
 30
0.0
 41
1.0
 10
648.2729686391962
 20
484.1183372128694
 30
0.0
 41
0.9628202993425032
 10
648.1522492156032
 20
484.1932643978815
 30
0.0
 41
1.0
 10
648.0174728173986
 20
484.2776195122059
 30
0.0
 41
0.9775118004740795
 10
647.9294612713552
 20
484.4100371492062
 30
0.0
 41
1.0
 10
647.8286018791164
 20
484.5601221490944
 30
0.0
 41
0.9869862567089956
 10
647.7805991262226
 20
484.7344604980277
 30
0.0
 41
1.0
 10
647.7279205605245
 20
484.9221766755567
 30
0.0
 41
0.9905158109185943
 10
647.7283256923633
 20
485.1171439303928
 30
0.0
 41
1.0
  0
SPLINE
  5
DD
330
1F
100
AcDbEntity
  8
BLOCCO_stool_8500-00--2D
100
AcDbSpline
210
0.0
220
0.0
230
1.0
 70
    24
 71
     2
 72
     6
 73
     3
 74
     0
 42
0.0000000001
 43
0.0000000001
 40
-1.0
 40
-1.0
 40
-1.0
 40
0.0
 40
0.0
 40
0.0
 10
647.7283256923633
 20
485.1171439303928
 30
0.0
 10
647.7283256923633
 20
485.6171439303928
 30
0.0
 10
647.7283256923633
 20
486.1171439303928
 30
0.0
  0
SPLINE
  5
DE
330
1F
100
AcDbEntity
  8
BLOCCO_stool_8500-00--2D
100
AcDbSpline
210
0.0
220
0.0
230
1.0
 70
    24
 71
     2
 72
     6
 73
     3
 74
     0
 42
0.0000000001
 43
0.0000000001
 40
0.0
 40
0.0
 40
0.0
 40
421.6440790585465
 40
421.6440790585465
 40
421.6440790585465
 10
743.4716361370588
 20
1214.117143930397
 30
0.0
 10
723.265239110527
 20
1004.265687250943
 30
0.0
 10
703.0588420839953
 20
794.4142305714897
 30
0.0
  0
SPLINE
  5
DF
330
1F
100
AcDbEntity
  8
BLOCCO_stool_8500-00--2D
100
AcDbSpline
210
0.0
220
0.0
230
1.0
 70
     8
 71
     3
 72
    14
 73
    10
 74
     0
 42
0.0000000001
 43
0.0000000001
 40
0.0
 40
0.0
 40
0.0
 40
0.0
 40
0.0067919548274357
 40
0.1305272860383143
 40
0.212980183934083
 40
0.3927842460078457
 40
0.7753971163877745
 40
1.553602446039679
 40
3.148844788167115
 40
3.148844788167115
 40
3.148844788167115
 40
3.148844788167115
 10
703.0588420839953
 20
794.4142305714897
 30
0.0
 10
703.0565978372574
 20
794.4139317002043
 30
0.0
 10
703.0131298681013
 20
794.4120273255127
 30
0.0
 10
702.9422062611488
 20
794.4088334355894
 30
0.0
 10
702.8137484739231
 20
794.4015713080623
 30
0.0
 10
702.5993260371637
 20
794.3861939020726
 30
0.0
 10
702.1547003530153
 20
794.3405816787105
 30
0.0
 10
701.2474295450233
 20
794.19153125253
 30
0.0
 10
700.4846079647081
 20
793.9733959951499
 30
0.0
 10
699.9850021027636
 20
793.7914733794589
 30
0.0
  0
SPLINE
  5
E0
330
1F
100
AcDbEntity
  8
BLOCCO_stool_8500-00--2D
100
AcDbSpline
210
0.0
220
0.0
230
1.0
 70
     8
 71
     3
 72
    15
 73
    11
 74
     0
 42
0.0000000001
 43
0.0000000001
 40
0.0
 40
0.0
 40
0.0
 40
0.0
 40
2.954586572683216
 40
5.784082060623966
 40
8.629503902582193
 40
11.56437676960426
 40
14.49335163622162
 40
17.34509062417885
 40
20.33429673076986
 40
23.19580231110327
 40
23.19580231110327
 40
23.19580231110327
 40
23.19580231110327
 10
699.9850021027636
 20
793.7914733794589
 30
0.0
 10
699.0595693218178
 20
793.454622505513
 30
0.0
 10
697.3426415498047
 20
792.5346748393161
 30
0.0
 10
695.2618144940147
 20
790.5094562213291
 30
0.0
 10
693.8130226680164
 20
788.0001884331025
 30
0.0
 10
693.1087594937448
 20
785.152974680461
 30
0.0
 10
693.235529037785
 20
782.2208919761371
 30
0.0
 10
694.1767783779218
 20
779.4232255014904
 30
0.0
 10
695.8526414437833
 20
777.0180796903832
 30
0.0
 10
697.3856665743619
 20
775.7821168160448
 30
0.0
 10
698.2036733253494
 20
775.2916666957387
 30
0.0
  0
SPLINE
  5
E1
330
1F
100
AcDbEntity
  8
BLOCCO_stool_8500-00--2D
100
AcDbSpline
210
0.0
220
0.0
230
1.0
 70
     8
 71
     3
 72
    18
 73
    14
 74
     0
 42
0.0000000001
 43
0.0000000001
 40
0.0
 40
0.0
 40
0.0
 40
0.0
 40
0.3689706308608244
 40
0.7739461695982069
 40
1.560284753323193
 40
2.277330793379872
 40
2.59427550288188
 40
2.801248154399745
 40
3.046711958151978
 40
3.094522847479428
 40
3.143137741923292
 40
3.154572041897182
 40
3.157844605016383
 40
3.157844605016383
 40
3.157844605016383
 40
3.157844605016383
 10
698.2036733253494
 20
775.2916666957387
 30
0.0
 10
698.3091552531663
 20
775.2284218730619
 30
0.0
 10
698.532489046564
 20
775.0992133017635
 30
0.0
 10
698.9912244122201
 20
774.8539761557645
 30
0.0
 10
699.5675245303687
 20
774.5837387080334
 30
0.0
 10
700.1334693264457
 20
774.3640069568118
 30
0.0
 10
700.5257620539691
 20
774.2326672288541
 30
0.0
 10
700.7706676268776
 20
774.1565270407789
 30
0.0
 10
700.9307588288606
 20
774.1098498247261
 30
0.0
 10
701.040012572455
 20
774.0774517777497
 30
0.0
 10
701.0742674190582
 20
774.066462021704
 30
0.0
 10
701.0939465451533
 20
774.0588559721238
 30
0.0
 10
701.0981471168466
 20
774.05613241839
 30
0.0
 10
701.0984751636783
 20
774.0550416812268
 30
0.0
  0
SPLINE
  5
E2
330
1F
100
AcDbEntity
  8
BLOCCO_stool_8500-00--2D
100
AcDbSpline
210
0.0
220
0.0
230
1.0
 70
    24
 71
     2
 72
     6
 73
     3
 74
     0
 42
0.0000000001
 43
0.0000000001
 40
0.0
 40
0.0
 40
0.0
 40
286.5446296420719
 40
286.5446296420719
 40
286.5446296420719
 10
701.0984751636783
 20
774.0550416812268
 30
0.0
 10
687.3664323343419
 20
631.442324177102
 30
0.0
 10
673.6343895050054
 20
488.8296066729772
 30
0.0
  0
SPLINE
  5
E3
330
1F
100
AcDbEntity
  8
BLOCCO_stool_8500-00--2D
100
AcDbSpline
210
0.0
220
0.0
230
1.0
 70
    12
 71
     2
 72
     6
 73
     3
 74
     0
 42
0.0000000001
 43
0.0000000001
 40
-4.424409653805651
 40
-4.424409653805651
 40
-4.424409653805651
 40
0.0
 40
0.0
 40
0.0
 10
673.6343895050054
 20
488.8296066729772
 30
0.0
 41
1.0
 10
673.3732090492643
 20
486.1171439305381
 30
0.0
 41
0.7402181274868563
 10
670.6482009099032
 20
486.1171439305378
 30
0.0
 41
1.0
  0
POLYLINE
  5
E4
330
1F
100
AcDbEntity
  8
BLOCCO_stool_8500-00--2D
100
AcDb2dPolyline
 66
     1
 10
0.0
 20
0.0
 30
0.0
  0
VERTEX
  5
E5
330
E4
100
AcDbEntity
  8
BLOCCO_stool_8500-00--2D
100
AcDbVertex
100
AcDb2dVertex
 10
670.6482009099032
 20
486.1171439305378
 30
0.0
  0
VERTEX
  5
E6
330
E4
100
AcDbEntity
  8
BLOCCO_stool_8500-00--2D
100
AcDbVertex
100
AcDb2dVertex
 10
646.5325353475823
 20
486.1171477311022
 30
0.0
  0
SEQEND
  5
E7
330
E4
100
AcDbEntity
  8
BLOCCO_stool_8500-00--2D
  0
SPLINE
  5
E8
330
1F
100
AcDbEntity
  8
BLOCCO_stool_8500-00--2D
100
AcDbSpline
210
0.0
220
0.0
230
1.0
 70
    12
 71
     2
 72
     8
 73
     5
 74
     0
 42
0.0000000001
 43
0.0000000001
 40
0.0
 40
0.0
 40
0.0
 40
2.497845196680617
 40
2.497845196680617
 40
4.995690393361235
 40
4.995690393361235
 40
4.995690393361235
 10
646.5325353475823
 20
486.1171477311022
 30
0.0
 41
1.0
 10
645.2060845691663
 20
486.1192183742809
 30
0.0
 41
0.9145888815391323
 10
644.3149869332878
 20
487.1017767483516
 30
0.0
 41
1.0
 10
643.4238892974093
 20
488.0843351224221
 30
0.0
 41
0.9145888815391323
 10
643.5510282967065
 20
489.4046839214761
 30
0.0
 41
1.0
  0
SPLINE
  5
E9
330
1F
100
AcDbEntity
  8
BLOCCO_stool_8500-00--2D
100
AcDbSpline
210
0.0
220
0.0
230
1.0
 70
    24
 71
     2
 72
     6
 73
     3
 74
     0
 42
0.0000000001
 43
0.0000000001
 40
0.0
 40
0.0
 40
0.0
 40
728.0643210331962
 40
728.0643210331962
 40
728.0643210331962
 10
643.5510282967065
 20
489.4046839214761
 30
0.0
 10
678.4419690462851
 20
851.7609139259365
 30
0.0
 10
713.3329097958635
 20
1214.117143930397
 30
0.0
  0
POLYLINE
  5
EA
330
1F
100
AcDbEntity
  8
BLOCCO_stool_8500-00--2D
100
AcDb2dPolyline
 66
     1
 10
0.0
 20
0.0
 30
0.0
  0
VERTEX
  5
EB
330
EA
100
AcDbEntity
  8
BLOCCO_stool_8500-00--2D
100
AcDbVertex
100
AcDb2dVertex
 10
713.3326848113243
 20
1214.117143934748
 30
0.0
  0
VERTEX
  5
EC
330
EA
100
AcDbEntity
  8
BLOCCO_stool_8500-00--2D
100
AcDbVertex
100
AcDb2dVertex
 10
1048.504907723055
 20
1214.117143934786
 30
0.0
  0
SEQEND
  5
ED
330
EA
100
AcDbEntity
  8
BLOCCO_stool_8500-00--2D
  0
SPLINE
  5
EE
330
1F
100
AcDbEntity
  8
BLOCCO_stool_8500-00--2D
100
AcDbSpline
210
0.0
220
0.0
230
1.0
 70
    12
 71
     2
 72
     8
 73
     5
 74
     0
 42
0.0000000001
 43
0.0000000001
 40
-5.000205535632879
 40
-5.000205535632879
 40
-5.000205535632879
 40
-2.500102767816439
 40
-2.500102767816439
 40
0.0
 40
0.0
 40
0.0
 10
1048.504907723055
 20
1214.117143934786
 30
0.0
 41
1.0
 10
1049.832710270614
 20
1214.117216210398
 30
0.0
 41
0.9144361867909365
 10
1050.725454049235
 20
1215.100103872476
 30
0.0
 41
1.0
 10
1051.618197827855
 20
1216.082991534554
 30
0.0
 41
0.9144361867909365
 10
1051.490933688331
 20
1217.404681187957
 30
0.0
 41
1.0
  0
SPLINE
  5
EF
330
1F
100
AcDbEntity
  8
BLOCCO_stool_8500-00--2D
100
AcDbSpline
210
0.0
220
0.0
230
1.0
 70
    24
 71
     2
 72
     6
 73
     3
 74
     0
 42
0.0000000001
 43
0.0000000001
 40
-23.84102683809853
 40
-23.84102683809853
 40
-23.84102683809853
 40
0.0
 40
0.0
 40
0.0
 10
1051.490933688331
 20
1217.404681187957
 30
0.0
 10
1050.348403105258
 20
1229.270314944615
 30
0.0
 10
1049.205872522184
 20
1241.135948701273
 30
0.0
  0
SPLINE
  5
F0
330
1F
100
AcDbEntity
  8
BLOCCO_stool_8500-00--2D
100
AcDbSpline
210
0.0
220
0.0
230
1.0
 70
    12
 71
     2
 72
     6
 73
     3
 74
     0
 42
0.0000000001
 43
0.0000000001
 40
-4.424325614483158
 40
-4.424325614483158
 40
-4.424325614483158
 40
0.0
 40
0.0
 40
0.0
 10
1049.205872522184
 20
1241.135948701273
 30
0.0
 41
1.0
 10
1048.944701040843
 20
1243.848336353291
 30
0.0
 41
0.7402271357494793
 10
1046.219724149509
 20
1243.848411086967
 30
0.0
 41
1.0
  0
SPLINE
  5
F1
330
1F
100
AcDbEntity
  8
BLOCCO_stool_8500-00--2D
100
AcDbSpline
210
0.0
220
0.0
230
1.0
 70
     8
 71
     3
 72
     8
 73
     4
 74
     0
 42
0.0000000001
 43
0.0000000001
 40
-330.6018152105945
 40
-330.6018152105945
 40
-330.6018152105945
 40
-330.6018152105945
 40
0.0
 40
0.0
 40
0.0
 40
0.0
 10
1046.219724149509
 20
1243.848411086967
 30
0.0
 10
936.0190747218762
 20
1243.848411418068
 30
0.0
 10
825.8184696521116
 20
1243.848411416996
 30
0.0
 10
715.6178645823469
 20
1243.848411246983
 30
0.0
  0
SPLINE
  5
F2
330
1F
100
AcDbEntity
  8
BLOCCO_stool_8500-00--2D
100
AcDbSpline
210
0.0
220
0.0
230
1.0
 70
    12
 71
     2
 72
     6
 73
     3
 74
     0
 42
0.0000000001
 43
0.0000000001
 40
-4.424289711342781
 40
-4.424289711342781
 40
-4.424289711342781
 40
0.0
 40
0.0
 40
0.0
 10
715.6178645823474
 20
1243.848411246984
 30
0.0
 41
0.9999999998327028
 10
712.8929661147842
 20
1243.848371779291
 30
0.0
 41
0.7402316515616719
 10
712.6317382910506
 20
1241.135986807889
 30
0.0
 41
1.0
  0
SPLINE
  5
F3
330
1F
100
AcDbEntity
  8
BLOCCO_stool_8500-00--2D
100
AcDbSpline
210
0.0
220
0.0
230
1.0
 70
    24
 71
     2
 72
     6
 73
     3
 74
     0
 42
0.0000000001
 43
0.0000000001
 40
-23.84095226092146
 40
-23.84095226092146
 40
-23.84095226092146
 40
0.0
 40
0.0
 40
0.0
 10
712.6317382910506
 20
1241.135986807889
 30
0.0
 10
711.4892075553466
 20
1229.270352557274
 30
0.0
 10
710.3466768196426
 20
1217.404718306659
 30
0.0
  0
SPLINE
  5
F4
330
1F
100
AcDbEntity
  8
BLOCCO_stool_8500-00--2D
100
AcDbSpline
210
0.0
220
0.0
230
1.0
 70
    12
 71
     2
 72
     8
 73
     5
 74
     0
 42
0.0000000001
 43
0.0000000001
 40
-5.000207279244325
 40
-5.000207279244325
 40
-5.000207279244325
 40
-2.500103639622162
 40
-2.500103639622162
 40
0.0
 40
0.0
 40
0.0
 10
710.3466768196426
 20
1217.404718306659
 30
0.0
 41
1.0
 10
710.2193929540831
 20
1216.082991007588
 30
0.0
 41
0.9144360761573993
 10
711.1121373225691
 20
1215.100103107668
 30
0.0
 41
1.0
 10
712.0048816910565
 20
1214.117215207749
 30
0.0
 41
0.9144360761573993
 10
713.3326848113243
 20
1214.117143934748
 30
0.0
 41
1.0
  0
SPLINE
  5
F5
330
1F
100
AcDbEntity
  8
BLOCCO_stool_8500-00--2D
100
AcDbSpline
210
0.0
220
0.0
230
1.0
 70
    24
 71
     2
 72
     6
 73
     3
 74
     0
 42
0.0000000001
 43
0.0000000001
 40
0.0
 40
0.0
 40
0.0
 40
163.0193597000384
 40
163.0193597000384
 40
163.0193597000384
 10
895.918811291885
 20
794.1171439304675
 30
0.0
 10
977.4284911419044
 20
794.1171439304675
 30
0.0
 10
1058.938170991924
 20
794.1171439304675
 30
0.0
  0
SPLINE
  5
F6
330
1F
100
AcDbEntity
  8
BLOCCO_stool_8500-00--2D
100
AcDbSpline
210
0.0
220
0.0
230
1.0
 70
    24
 71
     2
 72
     6
 73
     3
 74
     0
 42
0.0000000001
 43
0.0000000001
 40
0.0
 40
0.0
 40
0.0
 40
163.0187990813444
 40
163.0187990813444
 40
163.0187990813444
 10
702.9000122106459
 20
794.1171439304675
 30
0.0
 10
784.4094117513182
 20
794.1171439304675
 30
0.0
 10
865.9188112919904
 20
794.1171439304675
 30
0.0
  0
SPLINE
  5
F7
330
1F
100
AcDbEntity
  8
BLOCCO_stool_8500-00--2D
100
AcDbSpline
210
0.0
220
0.0
230
1.0
 70
    24
 71
     3
 72
     8
 73
     4
 74
     0
 42
0.0000000001
 43
0.0000000001
 40
0.0
 40
0.0
 40
0.0
 40
0.0
 40
163.0193597510974
 40
163.0193597510974
 40
163.0193597510974
 40
163.0193597510974
 10
865.9188112919851
 20
774.1171439304675
 30
0.0
 10
811.5790247082854
 20
774.1171439304673
 30
0.0
 10
757.2392381245868
 20
774.1171439304682
 30
0.0
 10
702.8994515408871
 20
774.1171439304675
 30
0.0
  0
SPLINE
  5
F8
330
1F
100
AcDbEntity
  8
BLOCCO_stool_8500-00--2D
100
AcDbSpline
210
0.0
220
0.0
230
1.0
 70
    24
 71
     2
 72
     6
 73
     3
 74
     0
 42
0.0000000001
 43
0.0000000001
 40
0.0
 40
0.0
 40
0.0
 40
163.0193596120306
 40
163.0193596120306
 40
163.0193596120306
 10
1058.938170903916
 20
774.1171439304671
 30
0.0
 10
977.4284910979012
 20
774.1171439304673
 30
0.0
 10
895.9188112918859
 20
774.1171439304675
 30
0.0
  0
SPLINE
  5
F9
330
1F
100
AcDbEntity
  8
BLOCCO_stool_8500-00--2D
100
AcDbSpline
210
0.0
220
0.0
230
1.0
 70
    12
 71
     2
 72
     6
 73
     3
 74
     0
 42
0.0000000001
 43
0.0000000001
 40
0.0
 40
0.0
 40
0.0
 40
4.830889763626028
 40
4.830889763626028
 40
4.830889763626028
 10
698.2541147971374
 20
775.2615896888417
 30
0.0
 41
1.0
 10
700.4357187366914
 20
774.1171902188102
 30
0.0
 41
0.9709695032822168
 10
702.8992620982303
 20
774.1171465785549
 30
0.0
 41
1.0
  0
SPLINE
  5
FA
330
1F
100
AcDbEntity
  8
BLOCCO_stool_8500-00--2D
100
AcDbSpline
210
0.0
220
0.0
230
1.0
 70
    12
 71
     2
 72
     6
 73
     3
 74
     0
 42
0.0000000001
 43
0.0000000001
 40
0.0
 40
0.0
 40
0.0
 40
4.831273863226374
 40
4.831273863226374
 40
4.831273863226374
 10
702.9000122106467
 20
794.1171412684891
 30
0.0
 41
1.0
 10
700.4362648266213
 20
794.1172846187408
 30
0.0
 41
0.9709647215909477
 10
698.2544391019987
 20
792.9728687414406
 30
0.0
 41
1.0
  0
SPLINE
  5
FB
330
1F
100
AcDbEntity
  8
BLOCCO_stool_8500-00--2D
100
AcDbSpline
210
0.0
220
0.0
230
1.0
 70
    24
 71
     2
 72
     6
 73
     3
 74
     0
 42
0.0000000001
 43
0.0000000001
 40
0.0
 40
0.0
 40
0.0
 40
728.3531932656205
 40
728.3531932656205
 40
728.3531932656205
 10
716.7847668170184
 20
1214.117143575731
 30
0.0
 10
681.8799868624928
 20
851.6171437531347
 30
0.0
 10
646.9752069079673
 20
489.1171439305378
 30
0.0
  0
ENDSEC
  0
SECTION
  2
OBJECTS
  0
DICTIONARY
  5
C
330
0
100
AcDbDictionary
281
     1
  3
ACAD_COLOR
350
103
  3
ACAD_GROUP
350
D
  3
ACAD_LAYOUT
350
1A
  3
ACAD_MATERIAL
350
FF
  3
ACAD_MLEADERSTYLE
350
FD
  3
ACAD_MLINESTYLE
350
17
  3
ACAD_PLOTSETTINGS
350
19
  3
ACAD_PLOTSTYLENAME
350
E
  3
ACAD_TABLESTYLE
350
FC
  3
ACAD_VISUALSTYLE
350
2A
  3
AcDbVariableDictionary
350
11D
  0
DICTIONARY
  5
109
330
8
100
AcDbDictionary
280
     1
281
     1
  3
ACAD_XREC_ROUNDTRIP
360
10A
  0
DICTIONARY
  5
10B
330
10
100
AcDbDictionary
280
     1
281
     1
  3
ACAD_XREC_ROUNDTRIP
360
10C
  0
DICTIONARY
  5
113
330
3B
100
AcDbDictionary
280
     1
281
     1
  3
ACAD_XREC_ROUNDTRIP
360
114
  0
DICTIONARY
  5
103
102
{ACAD_REACTORS
330
C
102
}
330
C
100
AcDbDictionary
281
     1
  0
DICTIONARY
  5
D
102
{ACAD_REACTORS
330
C
102
}
330
C
100
AcDbDictionary
281
     1
  0
DICTIONARY
  5
1A
102
{ACAD_REACTORS
330
C
102
}
330
C
100
AcDbDictionary
281
     1
  3
Layout1
350
1E
  3
Layout2
350
26
  3
Model
350
22
  0
DICTIONARY
  5
FF
102
{ACAD_REACTORS
330
C
102
}
330
C
100
AcDbDictionary
281
     1
  3
ByBlock
350
101
  3
ByLayer
350
100
  3
Global
350
102
  0
DICTIONARY
  5
FD
102
{ACAD_REACTORS
330
C
102
}
330
C
100
AcDbDictionary
281
     1
  0
DICTIONARY
  5
17
102
{ACAD_REACTORS
330
C
102
}
330
C
100
AcDbDictionary
281
     1
  3
Standard
350
18
  0
DICTIONARY
  5
19
102
{ACAD_REACTORS
330
C
102
}
330
C
100
AcDbDictionary
281
     1
  0
ACDBDICTIONARYWDFLT
  5
E
102
{ACAD_REACTORS
330
C
102
}
330
C
100
AcDbDictionary
281
     1
  3
Normal
350
F
100
AcDbDictionaryWithDefault
340
F
  0
DICTIONARY
  5
FC
102
{ACAD_REACTORS
330
C
102
}
330
C
100
AcDbDictionary
281
     1
  3
Standard
350
104
  0
DICTIONARY
  5
2A
102
{ACAD_REACTORS
330
C
102
}
330
C
100
AcDbDictionary
281
     1
  3
2dWireframe
350
2F
  3
3D Hidden
350
31
  3
3dWireframe
350
30
  3
Basic
350
32
  3
Brighten
350
36
  3
ColorChange
350
3A
  3
Conceptual
350
34
  3
Dim
350
35
  3
Facepattern
350
39
  3
Flat
350
2B
  3
FlatWithEdges
350
2C
  3
Gouraud
350
2D
  3
GouraudWithEdges
350
2E
  3
Linepattern
350
38
  3
Realistic
350
33
  3
Thicken
350
37
  0
DICTIONARY
  5
11D
102
{ACAD_REACTORS
330
C
102
}
330
C
100
AcDbDictionary
281
     1
  3
CTABLESTYLE
350
11E
  3
DIMASSOC
350
122
  3
HIDETEXT
350
121
  3
INDEXCTL
350
120
  3
SORTENTS
350
11F
  0
XRECORD
  5
10A
102
{ACAD_REACTORS
330
109
102
}
330
109
100
AcDbXrecord
280
     1
102
VTR_0.000_0.000_1.000_1.000_VISUALSTYLE
340
2F
102
VTR_0.000_0.000_1.000_1.000_GRIDDISPLAY
 70
     3
102
VTR_0.000_0.000_1.000_1.000_GRIDMAJOR
 70
     5
102
VTR_0.000_0.000_1.000_1.000_DEFAULTLIGHTING
280
     1
102
VTR_0.000_0.000_1.000_1.000_DEFAULTLIGHTINGTYPE
 70
     1
102
VTR_0.000_0.000_1.000_1.000_BRIGHTNESS
141
0.0
102
VTR_0.000_0.000_1.000_1.000_CONTRAST
142
0.0
  0
XRECORD
  5
10C
102
{ACAD_REACTORS
330
10B
102
}
330
10B
100
AcDbXrecord
280
     1
102
MATERIAL
340
102
  0
XRECORD
  5
114
102
{ACAD_REACTORS
330
113
102
}
330
113
100
AcDbXrecord
280
     1
102
MATERIAL
340
102
  0
LAYOUT
  5
1E
102
{ACAD_REACTORS
330
1A
102
}
330
1A
100
AcDbPlotSettings
  1

  2
none_device
  4

  6

 40
0.0
 41
0.0
 42
0.0
 43
0.0
 44
0.0
 45
0.0
 46
0.0
 47
0.0
 48
0.0
 49
0.0
140
0.0
141
0.0
142
1.0
143
1.0
 70
   688
 72
     0
 73
     0
 74
     5
  7

 75
    16
147
1.0
 76
     0
 77
     2
 78
   300
148
0.0
149
0.0
100
AcDbLayout
  1
Layout1
 70
     1
 71
     1
 10
0.0
 20
0.0
 11
12.0
 21
9.0
 12
0.0
 22
0.0
 32
0.0
 14
1.000000000000000E+20
 24
1.000000000000000E+20
 34
1.000000000000000E+20
 15
-1.000000000000000E+20
 25
-1.000000000000000E+20
 35
-1.000000000000000E+20
146
0.0
 13
0.0
 23
0.0
 33
0.0
 16
1.0
 26
0.0
 36
0.0
 17
0.0
 27
1.0
 37
0.0
 76
     0
330
1B
  0
LAYOUT
  5
26
102
{ACAD_REACTORS
330
1A
102
}
330
1A
100
AcDbPlotSettings
  1

  2
none_device
  4

  6

 40
0.0
 41
0.0
 42
0.0
 43
0.0
 44
0.0
 45
0.0
 46
0.0
 47
0.0
 48
0.0
 49
0.0
140
0.0
141
0.0
142
1.0
143
1.0
 70
   688
 72
     0
 73
     0
 74
     5
  7

 75
    16
147
1.0
 76
     0
 77
     2
 78
   300
148
0.0
149
0.0
100
AcDbLayout
  1
Layout2
 70
     1
 71
     2
 10
0.0
 20
0.0
 11
0.0
 21
0.0
 12
0.0
 22
0.0
 32
0.0
 14
0.0
 24
0.0
 34
0.0
 15
0.0
 25
0.0
 35
0.0
146
0.0
 13
0.0
 23
0.0
 33
0.0
 16
1.0
 26
0.0
 36
0.0
 17
0.0
 27
1.0
 37
0.0
 76
     0
330
23
  0
LAYOUT
  5
22
102
{ACAD_REACTORS
330
1A
102
}
330
1A
100
AcDbPlotSettings
  1

  2
none_device
  4

  6

 40
0.0
 41
0.0
 42
0.0
 43
0.0
 44
0.0
 45
0.0
 46
0.0
 47
0.0
 48
0.0
 49
0.0
140
0.0
141
0.0
142
1.0
143
1.0
 70
  1712
 72
     0
 73
     0
 74
     0
  7

 75
     0
147
1.0
 76
     0
 77
     2
 78
   300
148
0.0
149
0.0
100
AcDbLayout
  1
Model
 70
     1
 71
     0
 10
0.0
 20
0.0
 11
12.0
 21
9.0
 12
0.0
 22
0.0
 32
0.0
 14
-216.0474319856553
 24
-216.0474332580386
 34
0.0
 15
1118.300316833062
 25
1243.848411246984
 35
0.0
146
0.0
 13
0.0
 23
0.0
 33
0.0
 16
1.0
 26
0.0
 36
0.0
 17
0.0
 27
1.0
 37
0.0
 76
     0
330
1F
331
29
  0
MATERIAL
  5
101
102
{ACAD_XDICTIONARY
360
117
102
}
102
{ACAD_REACTORS
330
FF
102
}
330
FF
100
AcDbMaterial
  1
ByBlock
  0
MATERIAL
  5
100
102
{ACAD_XDICTIONARY
360
115
102
}
102
{ACAD_REACTORS
330
FF
102
}
330
FF
100
AcDbMaterial
  1
ByLayer
  0
MATERIAL
  5
102
102
{ACAD_XDICTIONARY
360
119
102
}
102
{ACAD_REACTORS
330
FF
102
}
330
FF
100
AcDbMaterial
  1
Global
  0
MLINESTYLE
  5
18
102
{ACAD_REACTORS
330
17
102
}
330
17
100
AcDbMlineStyle
  2
STANDARD
 70
     0
  3

 62
   256
 51
90.0
 52
90.0
 71
     2
 49
0.5
 62
   256
  6
BYLAYER
 49
-0.5
 62
   256
  6
BYLAYER
  0
ACDBPLACEHOLDER
  5
F
102
{ACAD_REACTORS
330
E
102
}
330
E
  0
ACAD_PROXY_OBJECT
  5
104
102
{ACAD_XDICTIONARY
360
11B
102
}
102
{ACAD_REACTORS
330
FC
102
}
330
FC
100
AcDbProxyObject
 90
      499
 91
      503
 95
   983063
 70
     0
 93
     1849
310
4254DD185B99185C990028B81E85EB51B8AE3F2E07A17AD46E2B8FC02B5E8DC0F42B1CFD028000000C1008070000C3001FDFF8000000C1003FBFF000000182007F7FE00000030400FEFFC00000060801FDFF8000000C1003FBFF00000018200000000000000681FA0B0000001820100E000186003FBFF000000182007F7FE0
310
0000030400FEFFC00000060801FDFF8000000C1003FBFF000000182007F7FE000000304000AD7A3703D0AC73F4160000003040201C00030C007F7FE00000030400FEFFC00000060801FDFF8000000C1003FBFF000000182007F7FE00000030400FEFFC000000608000
340
11
340
11
340
11
 94
        0
  0
ACAD_PROXY_OBJECT
  5
2F
102
{ACAD_REACTORS
330
2A
102
}
330
2A
100
AcDbProxyObject
 90
      499
 91
      501
 95
   983063
 70
     0
 93
      444
310
430C9915DA5C99599C985B59401049028333333333333E3BF0000000000000FB0107901411070040501600405405064090741402480A0340
 94
        0
1001
ACAD
1000
AcDbSavedByObjectVersion
1070
     0
  0
ACAD_PROXY_OBJECT
  5
31
102
{ACAD_REACTORS
330
2A
102
}
330
2A
100
AcDbProxyObject
 90
      499
 91
      501
 95
   983063
 70
     0
 93
      508
310
428CD108121A5919195B8010640502408333333333333E3BF0000000000000FB01079024090700405020000000000001110200405405064090740C02480A0340
 94
        0
1001
ACAD
1000
AcDbSavedByObjectVersion
1070
     0
  0
ACAD_PROXY_OBJECT
  5
30
102
{ACAD_REACTORS
330
2A
102
}
330
2A
100
AcDbProxyObject
 90
      499
 91
      501
 95
   983063
 70
     0
 93
      444
310
430CD915DA5C99599C985B59401059028333333333333E3BF0000000000000FB0107901411070040501600405405064090741402480A0340
 94
        0
1001
ACAD
1000
AcDbSavedByObjectVersion
1070
     0
  0
ACAD_PROXY_OBJECT
  5
32
102
{ACAD_REACTORS
330
2A
102
}
330
2A
100
AcDbProxyObject
 90
      499
 91
      501
 95
   983063
 70
     0
 93
      396
310
4190985CDA58C0107406404333333333333E3BF0000000000000FB0107A41107004050150841D405064090741402480A0354
 94
        0
1001
ACAD
1000
AcDbSavedByObjectVersion
1070
     0
  0
ACAD_PROXY_OBJECT
  5
36
102
{ACAD_REACTORS
330
2A
102
}
330
2A
100
AcDbProxyObject
 90
      499
 91
      501
 95
   983063
 70
     0
 93
      436
310
42509C9A59DA1D195B8010C409028333333333333E3BF0000000000000FB010790141107004050150841D405064090741402480A029956
 94
        0
1001
ACAD
1000
AcDbSavedByObjectVersion
1070
     0
  0
ACAD_PROXY_OBJECT
  5
3A
102
{ACAD_REACTORS
330
2A
102
}
330
2A
100
AcDbProxyObject
 90
      499
 91
      501
 95
   983063
 70
     0
 93
      460
310
4310DBDB1BDC90DA185B99D9401104090240C333333333333E3BF0000000000000FB0108901411070040501508421405064090741402480A0354
 94
        0
1001
ACAD
1000
AcDbSavedByObjectVersion
1070
     0
  0
ACAD_PROXY_OBJECT
  5
34
102
{ACAD_REACTORS
330
2A
102
}
330
2A
100
AcDbProxyObject
 90
      499
 91
      501
 95
   983063
 70
     0
 93
      508
310
42D0DBDB98D95C1D1D585B0010940D028333333333333E3BF0000000000000FB0107902409070040501000000000000111010841D405064090740C02480A0340
 94
        0
1001
ACAD
1000
AcDbSavedByObjectVersion
1070
     0
  0
ACAD_PROXY_OBJECT
  5
35
102
{ACAD_REACTORS
330
2A
102
}
330
2A
100
AcDbProxyObject
 90
      499
 91
      501
 95
   983063
 70
     0
 93
      420
310
41111A5B4010B409028333333333333E3BF0000000000000FB010790141107004050150841D405064090741402480A02677FFFFFDB
 94
        0
1001
ACAD
1000
AcDbSavedByObjectVersion
1070
     0
  0
ACAD_PROXY_OBJECT
  5
39
102
{ACAD_REACTORS
330
2A
102
}
330
2A
100
AcDbProxyObject
 90
      499
 91
      501
 95
   983063
 70
     0
 93
      452
310
43119858D95C185D1D195C9B8010F409028333333333333E3BF0000000000000FB010790141107004050150841D405064090741402480A0350
 94
        0
1001
ACAD
1000
AcDbSavedByObjectVersion
1070
     0
  0
ACAD_PROXY_OBJECT
  5
2B
102
{ACAD_REACTORS
330
2A
102
}
330
2A
100
AcDbProxyObject
 90
      499
 91
      501
 95
   983063
 70
     0
 93
      396
310
41519B185D00240901404333333333333E3BF0000000000000F9010740A41107004050150841D405064090741402480A1B50
 94
        0
1001
ACAD
1000
AcDbSavedByObjectVersion
1070
     0
  0
ACAD_PROXY_OBJECT
  5
2C
102
{ACAD_REACTORS
330
2A
102
}
330
2A
100
AcDbProxyObject
 90
      499
 91
      501
 95
   983063
 70
     0
 93
      484
310
43919B185D15DA5D1A115919D95CC010140901404333333333333E3BF0000000000000F9010740901411070040501600405405064090741402480A1B50
 94
        0
1001
ACAD
1000
AcDbSavedByObjectVersion
1070
     0
  0
ACAD_PROXY_OBJECT
  5
2D
102
{ACAD_REACTORS
330
2A
102
}
330
2A
100
AcDbProxyObject
 90
      499
 91
      501
 95
   983063
 70
     0
 93
      420
310
4211DBDD5C985D590010240902404333333333333E3BF0000000000000F9010740A411070040501641D405064090741402480A1B50
 94
        0
1001
ACAD
1000
AcDbSavedByObjectVersion
1070
     0
  0
ACAD_PROXY_OBJECT
  5
2E
102
{ACAD_REACTORS
330
2A
102
}
330
2A
100
AcDbProxyObject
 90
      499
 91
      501
 95
   983063
 70
     0
 93
      508
310
4451DBDD5C985D5915DA5D1A115919D95CC010340902404333333333333E3BF0000000000000F9010740901411070040501600405405064090741402480A1B50
 94
        0
1001
ACAD
1000
AcDbSavedByObjectVersion
1070
     0
  0
ACAD_PROXY_OBJECT
  5
38
102
{ACAD_REACTORS
330
2A
102
}
330
2A
100
AcDbProxyObject
 90
      499
 91
      501
 95
   983063
 70
     0
 93
      452
310
43131A5B995C185D1D195C9B8010E409028333333333333E3BF0000000000000FB010790141107004050750841D405064090741402483A0350
 94
        0
1001
ACAD
1000
AcDbSavedByObjectVersion
1070
     0
  0
ACAD_PROXY_OBJECT
  5
33
102
{ACAD_REACTORS
330
2A
102
}
330
2A
100
AcDbProxyObject
 90
      499
 91
      501
 95
   983063
 70
     0
 93
      428
310
429499585B1A5CDD1A58C0108409028333333333333E3BF0000000000000FB01079019070040501508421405064090741402480A1B45
 94
        0
1001
ACAD
1000
AcDbSavedByObjectVersion
1070
     0
  0
ACAD_PROXY_OBJECT
  5
37
102
{ACAD_REACTORS
330
2A
102
}
330
2A
100
AcDbProxyObject
 90
      499
 91
      501
 95
   983063
 70
     0
 93
      420
310
42151A1A58DAD95B8010D409028333333333333E3BF0000000000000FB010790141107004050150C41D405064090741402480A035B
 94
        0
1001
ACAD
1000
AcDbSavedByObjectVersion
1070
     0
  0
DICTIONARYVAR
  5
11E
102
{ACAD_REACTORS
330
11D
102
}
330
11D
100
DictionaryVariables
280
     0
  1
STANDARD
  0
DICTIONARYVAR
  5
122
102
{ACAD_REACTORS
330
11D
102
}
330
11D
100
DictionaryVariables
280
     0
  1
2
  0
DICTIONARYVAR
  5
121
102
{ACAD_REACTORS
330
11D
102
}
330
11D
100
DictionaryVariables
280
     0
  1
1
  0
DICTIONARYVAR
  5
120
102
{ACAD_REACTORS
330
11D
102
}
330
11D
100
DictionaryVariables
280
     0
  1
0
  0
DICTIONARYVAR
  5
11F
102
{ACAD_REACTORS
330
11D
102
}
330
11D
100
DictionaryVariables
280
     0
  1
127
  0
DICTIONARY
  5
117
330
101
100
AcDbDictionary
280
     1
281
     1
  3
ACAD_XREC_ROUNDTRIP
360
118
  0
DICTIONARY
  5
115
330
100
100
AcDbDictionary
280
     1
281
     1
  3
ACAD_XREC_ROUNDTRIP
360
116
  0
DICTIONARY
  5
119
330
102
100
AcDbDictionary
280
     1
281
     1
  3
ACAD_XREC_ROUNDTRIP
360
11A
  0
DICTIONARY
  5
11B
330
104
100
AcDbDictionary
280
     1
281
     1
  3
ACAD_XREC_ROUNDTRIP
360
11C
  0
XRECORD
  5
118
102
{ACAD_REACTORS
330
117
102
}
330
117
100
AcDbXrecord
280
     1
102
MATERIAL
148
0.0
149
0.0
149
0.0
 93
        0
 94
       63
282
     0
 72
     1
 77
     1
171
     1
175
     1
179
     1
273
     0
  0
XRECORD
  5
116
102
{ACAD_REACTORS
330
115
102
}
330
115
100
AcDbXrecord
280
     1
102
MATERIAL
148
0.0
149
0.0
149
0.0
 93
        0
 94
       63
282
     0
 72
     1
 77
     1
171
     1
175
     1
179
     1
273
     0
  0
XRECORD
  5
11A
102
{ACAD_REACTORS
330
119
102
}
330
119
100
AcDbXrecord
280
     1
102
MATERIAL
148
0.0
149
0.0
149
0.0
 93
        0
 94
       63
282
     0
 72
     1
 77
     1
171
     1
175
     1
179
     1
273
     0
  0
XRECORD
  5
11C
102
{ACAD_REACTORS
330
11B
102
}
330
11B
100
AcDbXrecord
280
     1
102
ACAD_ROUNDTRIP_PRE2007_TABLESTYLE
 90
      512
 91
        0
  1

 92
      512
 93
        0
  2

 94
      512
 95
        0
  3

  0
ENDSEC
  0
EOF
