  0
SECTION
  2
HEADER
  9
$ACADVER
  1
AC1018
  9
$ACADMAINTVER
 70
     0
  9
$DWGCODEPAGE
  3
ANSI_1252
  9
$INSBASE
 10
0.0
 20
0.0
 30
0.0
  9
$EXTMIN
 10
-349.9999999999999
 20
-350.0
 30
0.0
  9
$EXTMAX
 10
2355.802436807888
 20
1582.537243236149
 30
0.0
  9
$LIMMIN
 10
0.0
 20
0.0
  9
$LIMMAX
 10
12.0
 20
9.0
  9
$ORTHOMODE
 70
     0
  9
$REGENMODE
 70
     1
  9
$FILLMODE
 70
     1
  9
$QTEXTMODE
 70
     0
  9
$MIRRTEXT
 70
     1
  9
$LTSCALE
 40
1.0
  9
$ATTMODE
 70
     1
  9
$TEXTSIZE
 40
0.2
  9
$TRACEWID
 40
0.05
  9
$TEXTSTYLE
  7
Standard
  9
$CLAYER
  8
Miura_Table_9580-01_2D
  9
$CELTYPE
  6
ByLayer
  9
$CECOLOR
 62
   256
  9
$CELTSCALE
 40
1.0
  9
$DISPSILH
 70
     0
  9
$DIMSCALE
 40
1.0
  9
$DIMASZ
 40
0.18
  9
$DIMEXO
 40
0.0625
  9
$DIMDLI
 40
0.38
  9
$DIMRND
 40
0.0
  9
$DIMDLE
 40
0.0
  9
$DIMEXE
 40
0.18
  9
$DIMTP
 40
0.0
  9
$DIMTM
 40
0.0
  9
$DIMTXT
 40
0.18
  9
$DIMCEN
 40
0.09
  9
$DIMTSZ
 40
0.0
  9
$DIMTOL
 70
     0
  9
$DIMLIM
 70
     0
  9
$DIMTIH
 70
     1
  9
$DIMTOH
 70
     1
  9
$DIMSE1
 70
     0
  9
$DIMSE2
 70
     0
  9
$DIMTAD
 70
     0
  9
$DIMZIN
 70
     0
  9
$DIMBLK
  1

  9
$DIMASO
 70
     1
  9
$DIMSHO
 70
     1
  9
$DIMPOST
  1

  9
$DIMAPOST
  1

  9
$DIMALT
 70
     0
  9
$DIMALTD
 70
     2
  9
$DIMALTF
 40
25.4
  9
$DIMLFAC
 40
1.0
  9
$DIMTOFL
 70
     0
  9
$DIMTVP
 40
0.0
  9
$DIMTIX
 70
     0
  9
$DIMSOXD
 70
     0
  9
$DIMSAH
 70
     0
  9
$DIMBLK1
  1

  9
$DIMBLK2
  1

  9
$DIMSTYLE
  2
Standard
  9
$DIMCLRD
 70
     0
  9
$DIMCLRE
 70
     0
  9
$DIMCLRT
 70
     0
  9
$DIMTFAC
 40
1.0
  9
$DIMGAP
 40
0.09
  9
$DIMJUST
 70
     0
  9
$DIMSD1
 70
     0
  9
$DIMSD2
 70
     0
  9
$DIMTOLJ
 70
     1
  9
$DIMTZIN
 70
     0
  9
$DIMALTZ
 70
     0
  9
$DIMALTTZ
 70
     0
  9
$DIMUPT
 70
     0
  9
$DIMDEC
 70
     4
  9
$DIMTDEC
 70
     4
  9
$DIMALTU
 70
     2
  9
$DIMALTTD
 70
     2
  9
$DIMTXSTY
  7
Standard
  9
$DIMAUNIT
 70
     0
  9
$DIMADEC
 70
     0
  9
$DIMALTRND
 40
0.0
  9
$DIMAZIN
 70
     0
  9
$DIMDSEP
 70
    46
  9
$DIMATFIT
 70
     3
  9
$DIMFRAC
 70
     0
  9
$DIMLDRBLK
  1

  9
$DIMLUNIT
 70
     2
  9
$DIMLWD
 70
    -2
  9
$DIMLWE
 70
    -2
  9
$DIMTMOVE
 70
     2
  9
$LUNITS
 70
     2
  9
$LUPREC
 70
     3
  9
$SKETCHINC
 40
0.1
  9
$FILLETRAD
 40
0.5
  9
$AUNITS
 70
     0
  9
$AUPREC
 70
     0
  9
$MENU
  1
.
  9
$ELEVATION
 40
0.0
  9
$PELEVATION
 40
0.0
  9
$THICKNESS
 40
0.0
  9
$LIMCHECK
 70
     0
  9
$CHAMFERA
 40
0.5
  9
$CHAMFERB
 40
0.5
  9
$CHAMFERC
 40
1.0
  9
$CHAMFERD
 40
0.0
  9
$SKPOLY
 70
     0
  9
$TDCREATE
 40
2457213.727909433
  9
$TDUCREATE
 40
2457213.6445761
  9
$TDUPDATE
 40
2457213.727909444
  9
$TDUUPDATE
 40
2457213.644576111
  9
$TDINDWG
 40
0.0000000116
  9
$TDUSRTIMER
 40
0.0000000116
  9
$USRTIMER
 70
     1
  9
$ANGBASE
 50
0.0
  9
$ANGDIR
 70
     0
  9
$PDMODE
 70
     0
  9
$PDSIZE
 40
0.0
  9
$PLINEWID
 40
0.0
  9
$SPLFRAME
 70
     0
  9
$SPLINETYPE
 70
     6
  9
$SPLINESEGS
 70
     8
  9
$HANDSEED
  5
188
  9
$SURFTAB1
 70
     6
  9
$SURFTAB2
 70
     6
  9
$SURFTYPE
 70
     6
  9
$SURFU
 70
     6
  9
$SURFV
 70
     6
  9
$UCSBASE
  2

  9
$UCSNAME
  2

  9
$UCSORG
 10
0.0
 20
0.0
 30
0.0
  9
$UCSXDIR
 10
1.0
 20
0.0
 30
0.0
  9
$UCSYDIR
 10
0.0
 20
1.0
 30
0.0
  9
$UCSORTHOREF
  2

  9
$UCSORTHOVIEW
 70
     0
  9
$UCSORGTOP
 10
0.0
 20
0.0
 30
0.0
  9
$UCSORGBOTTOM
 10
0.0
 20
0.0
 30
0.0
  9
$UCSORGLEFT
 10
0.0
 20
0.0
 30
0.0
  9
$UCSORGRIGHT
 10
0.0
 20
0.0
 30
0.0
  9
$UCSORGFRONT
 10
0.0
 20
0.0
 30
0.0
  9
$UCSORGBACK
 10
0.0
 20
0.0
 30
0.0
  9
$PUCSBASE
  2

  9
$PUCSNAME
  2

  9
$PUCSORG
 10
0.0
 20
0.0
 30
0.0
  9
$PUCSXDIR
 10
1.0
 20
0.0
 30
0.0
  9
$PUCSYDIR
 10
0.0
 20
1.0
 30
0.0
  9
$PUCSORTHOREF
  2

  9
$PUCSORTHOVIEW
 70
     0
  9
$PUCSORGTOP
 10
0.0
 20
0.0
 30
0.0
  9
$PUCSORGBOTTOM
 10
0.0
 20
0.0
 30
0.0
  9
$PUCSORGLEFT
 10
0.0
 20
0.0
 30
0.0
  9
$PUCSORGRIGHT
 10
0.0
 20
0.0
 30
0.0
  9
$PUCSORGFRONT
 10
0.0
 20
0.0
 30
0.0
  9
$PUCSORGBACK
 10
0.0
 20
0.0
 30
0.0
  9
$USERI1
 70
     0
  9
$USERI2
 70
     0
  9
$USERI3
 70
     0
  9
$USERI4
 70
     0
  9
$USERI5
 70
     0
  9
$USERR1
 40
0.0
  9
$USERR2
 40
0.0
  9
$USERR3
 40
0.0
  9
$USERR4
 40
0.0
  9
$USERR5
 40
0.0
  9
$WORLDVIEW
 70
     1
  9
$SHADEDGE
 70
     3
  9
$SHADEDIF
 70
    70
  9
$TILEMODE
 70
     1
  9
$MAXACTVP
 70
    64
  9
$PINSBASE
 10
0.0
 20
0.0
 30
0.0
  9
$PLIMCHECK
 70
     0
  9
$PEXTMIN
 10
1.000000000000000E+20
 20
1.000000000000000E+20
 30
1.000000000000000E+20
  9
$PEXTMAX
 10
-1.000000000000000E+20
 20
-1.000000000000000E+20
 30
-1.000000000000000E+20
  9
$PLIMMIN
 10
0.0
 20
0.0
  9
$PLIMMAX
 10
12.0
 20
9.0
  9
$UNITMODE
 70
     0
  9
$VISRETAIN
 70
     1
  9
$PLINEGEN
 70
     0
  9
$PSLTSCALE
 70
     1
  9
$TREEDEPTH
 70
  3020
  9
$CMLSTYLE
  2
Standard
  9
$CMLJUST
 70
     0
  9
$CMLSCALE
 40
1.0
  9
$PROXYGRAPHICS
 70
     1
  9
$MEASUREMENT
 70
     0
  9
$CELWEIGHT
370
    -1
  9
$ENDCAPS
280
     0
  9
$JOINSTYLE
280
     0
  9
$LWDISPLAY
290
     0
  9
$INSUNITS
 70
     4
  9
$HYPERLINKBASE
  1

  9
$STYLESHEET
  1

  9
$XEDIT
290
     1
  9
$CEPSNTYPE
380
     0
  9
$PSTYLEMODE
290
     1
  9
$FINGERPRINTGUID
  2
{5766A95D-4DEC-4F2D-AC9C-480897DD4CFB}
  9
$VERSIONGUID
  2
{FAEB1C32-E019-11D5-929B-00C0DF256EC4}
  9
$EXTNAMES
290
     1
  9
$PSVPSCALE
 40
0.0
  9
$OLESTARTUP
290
     0
  9
$SORTENTS
280
   127
  9
$INDEXCTL
280
     0
  9
$HIDETEXT
280
     1
  9
$XCLIPFRAME
290
     0
  9
$HALOGAP
280
     0
  9
$OBSCOLOR
 70
   257
  9
$OBSLTYPE
280
     0
  9
$INTERSECTIONDISPLAY
280
     0
  9
$INTERSECTIONCOLOR
 70
   257
  9
$DIMASSOC
280
     2
  9
$PROJECTNAME
  1

  0
ENDSEC
  0
SECTION
  2
CLASSES
  0
CLASS
  1
ACDBDICTIONARYWDFLT
  2
AcDbDictionaryWithDefault
  3
ObjectDBX Classes
 90
        0
 91
        4
280
     0
281
     0
  0
CLASS
  1
VISUALSTYLE
  2
AcDbVisualStyle
  3
ObjectDBX Classes
 90
     4095
 91
        4
280
     0
281
     0
  0
ENDSEC
  0
SECTION
  2
TABLES
  0
TABLE
  2
VPORT
  5
8
330
0
100
AcDbSymbolTable
 70
     1
  0
VPORT
  5
29
330
8
100
AcDbSymbolTableRecord
100
AcDbViewportTableRecord
  2
*Active
 70
     0
 10
0.0
 20
0.0
 11
1.0
 21
1.0
 12
1002.901218403944
 22
616.2686216180747
 13
0.0
 23
0.0
 14
0.5
 24
0.5
 15
0.5
 25
0.5
 16
0.0
 26
0.0
 36
1.0
 17
0.0
 27
0.0
 37
0.0
 40
1971.187988100872
 41
1.400129516922975
 42
50.0
 43
0.0
 44
0.0
 50
0.0
 51
0.0
 71
     0
 72
   100
 73
     1
 74
     3
 75
     0
 76
     0
 77
     0
 78
     0
281
     0
 65
     1
110
0.0
120
0.0
130
0.0
111
1.0
121
0.0
131
0.0
112
0.0
122
1.0
132
0.0
 79
     0
146
0.0
  0
ENDTAB
  0
TABLE
  2
LTYPE
  5
5
330
0
100
AcDbSymbolTable
 70
     1
  0
LTYPE
  5
14
330
5
100
AcDbSymbolTableRecord
100
AcDbLinetypeTableRecord
  2
ByBlock
 70
     0
  3

 72
    65
 73
     0
 40
0.0
  0
LTYPE
  5
15
330
5
100
AcDbSymbolTableRecord
100
AcDbLinetypeTableRecord
  2
ByLayer
 70
     0
  3

 72
    65
 73
     0
 40
0.0
  0
LTYPE
  5
16
330
5
100
AcDbSymbolTableRecord
100
AcDbLinetypeTableRecord
  2
Continuous
 70
     0
  3
Solid line
 72
    65
 73
     0
 40
0.0
  0
ENDTAB
  0
TABLE
  2
LAYER
  5
2
330
0
100
AcDbSymbolTable
 70
     2
  0
LAYER
  5
10
330
2
100
AcDbSymbolTableRecord
100
AcDbLayerTableRecord
  2
0
 70
     0
 62
     7
  6
Continuous
370
    -3
390
F
  0
LAYER
  5
3B
330
2
100
AcDbSymbolTableRecord
100
AcDbLayerTableRecord
  2
Miura_Table_9580-01_2D
 70
     0
 62
     7
  6
Continuous
370
    -3
390
F
  0
ENDTAB
  0
TABLE
  2
STYLE
  5
3
330
0
100
AcDbSymbolTable
 70
     1
  0
STYLE
  5
11
330
3
100
AcDbSymbolTableRecord
100
AcDbTextStyleTableRecord
  2
Standard
 70
     0
 40
0.0
 41
1.0
 50
0.0
 71
     0
 42
0.2
  3
txt
  4

  0
ENDTAB
  0
TABLE
  2
VIEW
  5
6
330
0
100
AcDbSymbolTable
 70
     0
  0
ENDTAB
  0
TABLE
  2
UCS
  5
7
330
0
100
AcDbSymbolTable
 70
     0
  0
ENDTAB
  0
TABLE
  2
APPID
  5
9
330
0
100
AcDbSymbolTable
 70
     1
  0
APPID
  5
12
330
9
100
AcDbSymbolTableRecord
100
AcDbRegAppTableRecord
  2
ACAD
 70
     0
  0
ENDTAB
  0
TABLE
  2
DIMSTYLE
  5
A
330
0
100
AcDbSymbolTable
 70
     1
100
AcDbDimStyleTable
  0
DIMSTYLE
105
27
330
A
100
AcDbSymbolTableRecord
100
AcDbDimStyleTableRecord
  2
Standard
 70
     0
340
11
  0
ENDTAB
  0
TABLE
  2
BLOCK_RECORD
  5
1
330
0
100
AcDbSymbolTable
 70
     1
  0
BLOCK_RECORD
  5
1F
330
1
100
AcDbSymbolTableRecord
100
AcDbBlockTableRecord
  2
*Model_Space
340
22
  0
BLOCK_RECORD
  5
1B
330
1
100
AcDbSymbolTableRecord
100
AcDbBlockTableRecord
  2
*Paper_Space
340
1E
  0
BLOCK_RECORD
  5
23
330
1
100
AcDbSymbolTableRecord
100
AcDbBlockTableRecord
  2
*Paper_Space0
340
26
  0
ENDTAB
  0
ENDSEC
  0
SECTION
  2
BLOCKS
  0
BLOCK
  5
20
330
1F
100
AcDbEntity
  8
0
100
AcDbBlockBegin
  2
*Model_Space
 70
     0
 10
0.0
 20
0.0
 30
0.0
  3
*Model_Space
  1

  0
ENDBLK
  5
21
330
1F
100
AcDbEntity
  8
0
100
AcDbBlockEnd
  0
BLOCK
  5
1C
330
1B
100
AcDbEntity
 67
     1
  8
0
100
AcDbBlockBegin
  2
*Paper_Space
 70
     0
 10
0.0
 20
0.0
 30
0.0
  3
*Paper_Space
  1

  0
ENDBLK
  5
1D
330
1B
100
AcDbEntity
 67
     1
  8
0
100
AcDbBlockEnd
  0
BLOCK
  5
24
330
23
100
AcDbEntity
  8
0
100
AcDbBlockBegin
  2
*Paper_Space0
 70
     0
 10
0.0
 20
0.0
 30
0.0
  3
*Paper_Space0
  1

  0
ENDBLK
  5
25
330
23
100
AcDbEntity
  8
0
100
AcDbBlockEnd
  0
ENDSEC
  0
SECTION
  2
ENTITIES
  0
SPLINE
  5
3C
330
1F
100
AcDbEntity
  8
Miura_Table_9580-01_2D
100
AcDbSpline
210
0.0
220
0.0
230
1.0
 70
     8
 71
     3
 72
    14
 73
    10
 74
     0
 42
0.0000000001
 43
0.0000000001
 40
5.336750120081025
 40
5.336750120081025
 40
5.336750120081025
 40
5.336750120081025
 40
7.847355141803423
 40
11.91041431675304
 40
16.08262218519272
 40
20.36384899084758
 40
24.75401733121508
 40
29.18049075023895
 40
33.71426896077235
 40
33.71426896077235
 40
33.71426896077235
 40
33.71426896077235
 10
-23.24254393188536
 20
349.9999999999999
 30
0.0
 10
-22.89241171470153
 20
350.7600924038483
 30
0.0
 10
-21.84933105070826
 20
352.6923459776905
 30
0.0
 10
-19.65760480572862
 20
355.5458570601426
 30
0.0
 10
-16.53955566043351
 20
358.3433011897528
 30
0.0
 10
-12.89184240833038
 20
360.6137617938907
 30
0.0
 10
-8.842252855626612
 20
362.2834937625015
 30
0.0
 10
-4.498795519482317
 20
363.3122803662109
 30
0.0
 10
-1.512055810581786
 20
363.5441306888571
 30
0.0
 10
-0.0007517012686549
 20
363.5440943531757
 30
0.0
  0
SPLINE
  5
3D
330
1F
100
AcDbEntity
  8
Miura_Table_9580-01_2D
100
AcDbSpline
210
0.0
220
0.0
230
1.0
 70
     8
 71
     3
 72
    14
 73
    10
 74
     0
 42
0.0000000001
 43
0.0000000001
 40
0.0
 40
0.0
 40
0.0
 40
0.0
 40
4.517138906925932
 40
8.979902650711733
 40
13.35193316100333
 40
17.61498633519655
 40
21.78720833974147
 40
25.85028218847101
 40
28.37902572485454
 40
28.37902572485454
 40
28.37902572485454
 40
28.37902572485454
 10
-0.0007517012686549
 20
363.5440943531757
 30
0.0
 10
1.504983782848691
 20
363.5441160703728
 30
0.0
 10
4.498323481555579
 20
363.3129364249851
 30
0.0
 10
8.84248070511785
 20
362.2839734949893
 30
0.0
 10
12.89138100618311
 20
360.6128568688166
 30
0.0
 10
16.52947660029076
 20
358.350191472749
 30
0.0
 10
19.64513147741491
 20
355.559183653921
 30
0.0
 10
21.84300544816132
 20
352.7027266308226
 30
0.0
 10
22.88988487496591
 20
350.7655787920746
 30
0.0
 10
23.24254757114362
 20
350.0
 30
0.0
  0
SPLINE
  5
3E
330
1F
100
AcDbEntity
  8
Miura_Table_9580-01_2D
100
AcDbSpline
210
0.0
220
0.0
230
1.0
 70
     8
 71
     3
 72
    16
 73
    12
 74
     0
 42
0.0000000001
 43
0.0000000001
 40
8.984989568363154
 40
8.984989568363154
 40
8.984989568363154
 40
8.984989568363154
 40
12.81895580244936
 40
17.27666290000615
 40
21.93536994694509
 40
26.72660484100907
 40
31.5916054989074
 40
34.06202637132732
 40
35.29851844026865
 40
35.89107656027872
 40
36.53847946972933
 40
36.53847946972933
 40
36.53847946972933
 40
36.53847946972933
 10
-22.97729841530701
 20
350.0000000000001
 30
0.0
 10
-22.38624048189513
 20
351.1328821590427
 30
0.0
 10
-20.87002143820062
 20
353.4588430790101
 30
0.0
 10
-17.84641022328015
 20
356.5690450560007
 30
0.0
 10
-14.02250825326155
 20
359.2263309183511
 30
0.0
 10
-9.656097085994588
 20
361.1967499188062
 30
0.0
 10
-5.727333770593759
 20
362.2073651000163
 30
0.0
 10
-2.88984279287979
 20
362.5645110834067
 30
0.0
 10
-1.459253062470452
 20
362.6545111272628
 30
0.0
 10
-0.6341337389876571
 20
362.681160448538
 30
0.0
 10
-0.2207949827907214
 20
362.6842510807413
 30
0.0
 10
-0.0049999975121864
 20
362.6850927976295
 30
0.0
  0
SPLINE
  5
3F
330
1F
100
AcDbEntity
  8
Miura_Table_9580-01_2D
100
AcDbSpline
210
0.0
220
0.0
230
1.0
 70
    24
 71
     2
 72
     6
 73
     3
 74
     0
 42
0.0000000001
 43
0.0000000001
 40
0.0
 40
0.0
 40
0.0
 40
0.004968972768345
 40
0.004968972768345
 40
0.004968972768345
 10
-0.0049999975121864
 20
362.6850927976295
 30
0.0
 10
-0.0025077549723846
 20
362.6850922468902
 30
0.0
 10
-0.0000155124325829
 20
362.6850916961508
 30
0.0
  0
SPLINE
  5
40
330
1F
100
AcDbEntity
  8
Miura_Table_9580-01_2D
100
AcDbSpline
210
0.0
220
0.0
230
1.0
 70
    24
 71
     2
 72
     6
 73
     3
 74
     0
 42
0.0000000001
 43
0.0000000001
 40
0.0
 40
0.0
 40
0.0
 40
0.0049999976354052
 40
0.0049999976354052
 40
0.0049999976354052
 10
-0.0000155124325829
 20
362.6850916961508
 30
0.0
 10
0.0024922425404839
 20
362.6850922468902
 30
0.0
 10
0.0049999975135506
 20
362.6850927976295
 30
0.0
  0
SPLINE
  5
41
330
1F
100
AcDbEntity
  8
Miura_Table_9580-01_2D
100
AcDbSpline
210
0.0
220
0.0
230
1.0
 70
     8
 71
     3
 72
    16
 73
    12
 74
     0
 42
0.0000000001
 43
0.0000000001
 40
0.0
 40
0.0
 40
0.0
 40
0.0
 40
0.6474029094497074
 40
1.239961029460453
 40
2.476453098401801
 40
4.946873970821248
 40
9.811874628719307
 40
14.60310952278406
 40
19.26181656972217
 40
23.71952366727891
 40
27.5535299942328
 40
27.5535299942328
 40
27.5535299942328
 40
27.5535299942328
 10
0.0049999975135506
 20
362.6850927976295
 30
0.0
 10
0.2207949128123801
 20
362.6842479171514
 30
0.0
 10
0.634133870938058
 20
362.6811664136364
 30
0.0
 10
1.459232980959314
 20
362.6543252633205
 30
0.0
 10
2.889868273977299
 20
362.5647146890003
 30
0.0
 10
5.727286717078641
 20
362.2072053773397
 30
0.0
 10
9.656159608911366
 20
361.1969274186164
 30
0.0
 10
14.02247569428891
 20
359.2263443417654
 30
0.0
 10
17.84644086454227
 20
356.5690316733587
 30
0.0
 10
20.87003060233561
 20
353.45874564103
 30
0.0
 10
22.38623031632208
 20
351.1329441369759
 30
0.0
 10
22.97732785300588
 20
349.9999999999999
 30
0.0
  0
POLYLINE
  5
42
330
1F
100
AcDbEntity
  8
Miura_Table_9580-01_2D
100
AcDb2dPolyline
 66
     1
 10
0.0
 20
0.0
 30
0.0
  0
VERTEX
  5
43
330
42
100
AcDbEntity
  8
Miura_Table_9580-01_2D
100
AcDbVertex
100
AcDb2dVertex
 10
-349.9999999999999
 20
-350.0
 30
0.0
  0
VERTEX
  5
44
330
42
100
AcDbEntity
  8
Miura_Table_9580-01_2D
100
AcDbVertex
100
AcDb2dVertex
 10
350.0
 20
-350.0
 30
0.0
  0
VERTEX
  5
45
330
42
100
AcDbEntity
  8
Miura_Table_9580-01_2D
100
AcDbVertex
100
AcDb2dVertex
 10
350.0
 20
350.0
 30
0.0
  0
VERTEX
  5
46
330
42
100
AcDbEntity
  8
Miura_Table_9580-01_2D
100
AcDbVertex
100
AcDb2dVertex
 10
-349.9999999999999
 20
350.0
 30
0.0
  0
VERTEX
  5
47
330
42
100
AcDbEntity
  8
Miura_Table_9580-01_2D
100
AcDbVertex
100
AcDb2dVertex
 10
-349.9999999999999
 20
-350.0
 30
0.0
  0
SEQEND
  5
48
330
42
100
AcDbEntity
  8
Miura_Table_9580-01_2D
  0
SPLINE
  5
49
330
1F
100
AcDbEntity
  8
Miura_Table_9580-01_2D
100
AcDbSpline
210
0.0
220
0.0
230
1.0
 70
     8
 71
     3
 72
    12
 73
     8
 74
     0
 42
0.0000000001
 43
0.0000000001
 40
0.0
 40
0.0
 40
0.0
 40
0.0
 40
0.0890023797843848
 40
0.1797960093845599
 40
0.411193526615116
 40
0.6556287843923315
 40
0.8529811660911646
 40
0.8529811660911646
 40
0.8529811660911646
 40
0.8529811660911646
 10
-318.0662017726172
 20
851.271041110672
 30
0.0
 10
-318.0468898106265
 20
851.2937689150164
 30
0.0
 10
-318.006096133774
 20
851.3378969762908
 30
0.0
 10
-317.8974194918601
 20
851.4221494914831
 30
0.0
 10
-317.7308983113044
 20
851.5124066749048
 30
0.0
 10
-317.5213916629509
 20
851.5942068849635
 30
0.0
 10
-317.3758726790202
 20
851.6220557388623
 30
0.0
 10
-317.3099827956266
 20
851.623839563308
 30
0.0
  0
SPLINE
  5
4A
330
1F
100
AcDbEntity
  8
Miura_Table_9580-01_2D
100
AcDbSpline
210
0.0
220
0.0
230
1.0
 70
    24
 71
     2
 72
     6
 73
     3
 74
     0
 42
0.0000000001
 43
0.0000000001
 40
0.0
 40
0.0
 40
0.0
 40
0.5244495011189884
 40
0.5244495011189884
 40
0.5244495011189884
 10
-318.4097146785844
 20
850.8743850731267
 30
0.0
 10
-318.2379582256008
 20
851.0727130918993
 30
0.0
 10
-318.0662017726172
 20
851.271041110672
 30
0.0
  0
SPLINE
  5
4B
330
1F
100
AcDbEntity
  8
Miura_Table_9580-01_2D
100
AcDbSpline
210
0.0
220
0.0
230
1.0
 70
     8
 71
     3
 72
    16
 73
    12
 74
     0
 42
0.0000000001
 43
0.0000000001
 40
0.0
 40
0.0
 40
0.0
 40
0.0
 40
0.1450445684408275
 40
0.2674563255525638
 40
0.5165020686838145
 40
0.7647651081847263
 40
0.9971024939488223
 40
1.19489142016583
 40
1.37708050099132
 40
1.556352254818322
 40
1.789706299665248
 40
1.789706299665248
 40
1.789706299665248
 40
1.789706299665248
 10
-318.0488297832881
 20
849.374386432099
 30
0.0
 10
-318.088275091126
 20
849.4025280716468
 30
0.0
 10
-318.1604196263797
 20
849.454987043841
 30
0.0
 10
-318.291020899539
 20
849.5674341135617
 30
0.0
 10
-318.429410859103
 20
849.7217874436236
 30
0.0
 10
-318.5592710913088
 20
849.9285474984509
 30
0.0
 10
-318.6414105353469
 20
850.1405958798106
 30
0.0
 10
-318.6683951449186
 20
850.3446806877004
 30
0.0
 10
-318.639026343918
 20
850.5310012084364
 30
0.0
 10
-318.5504991371681
 20
850.710549477258
 30
0.0
 10
-318.4607475344083
 20
850.8156717997441
 30
0.0
 10
-318.4097146785844
 20
850.8743850731267
 30
0.0
  0
SPLINE
  5
4C
330
1F
100
AcDbEntity
  8
Miura_Table_9580-01_2D
100
AcDbSpline
210
0.0
220
0.0
230
1.0
 70
     8
 71
     3
 72
    12
 73
     8
 74
     0
 42
0.0000000001
 43
0.0000000001
 40
0.0
 40
0.0
 40
0.0
 40
0.0
 40
2.765242495116512
 40
5.467131183712467
 40
11.12386283924205
 40
16.6939552205985
 40
22.3034199774177
 40
22.3034199774177
 40
22.3034199774177
 40
22.3034199774177
 10
-297.1833222478117
 20
842.5388541148499
 30
0.0
 10
-298.1050340361453
 20
842.5476437623937
 30
0.0
 10
-299.9266177761201
 20
842.6354532600336
 30
0.0
 10
-303.6090376534275
 20
843.0909446230079
 30
0.0
 10
-308.134566443181
 20
844.1902323239316
 30
0.0
 10
-313.3338687963796
 20
846.346036099036
 30
0.0
 10
-316.5282660913326
 20
848.2861135165698
 30
0.0
 10
-318.0488297832881
 20
849.374386432099
 30
0.0
  0
SPLINE
  5
4D
330
1F
100
AcDbEntity
  8
Miura_Table_9580-01_2D
100
AcDbSpline
210
0.0
220
0.0
230
1.0
 70
     8
 71
     5
 72
    12
 73
     6
 74
     0
 42
0.0000000001
 43
0.0000000001
 40
-1.0
 40
-1.0
 40
-1.0
 40
-1.0
 40
-1.0
 40
-1.0
 40
0.0
 40
0.0
 40
0.0
 40
0.0
 40
0.0
 40
0.0
 10
-296.8386689540012
 20
842.5371986722952
 30
0.0
 10
-296.9076004076314
 20
842.5372047899228
 30
0.0
 10
-296.9765318465597
 20
842.5373765618114
 30
0.0
 10
-297.0454640249427
 20
842.537705506341
 30
0.0
 10
-297.1143939279928
 20
842.5381967991415
 30
0.0
 10
-297.1833222478117
 20
842.5388541148499
 30
0.0
  0
SPLINE
  5
4E
330
1F
100
AcDbEntity
  8
Miura_Table_9580-01_2D
100
AcDbSpline
210
0.0
220
0.0
230
1.0
 70
     8
 71
     3
 72
    11
 73
     7
 74
     0
 42
0.0000000001
 43
0.0000000001
 40
0.0
 40
0.0
 40
0.0
 40
0.0
 40
2.849025153143939
 40
5.681848556468799
 40
11.31563454753918
 40
22.64754464670963
 40
22.64754464670963
 40
22.64754464670963
 40
22.64754464670963
 10
-275.6288964529413
 20
849.3743083487294
 30
0.0
 10
-276.4012246918655
 20
848.8214013202715
 30
0.0
 10
-277.9838446818148
 20
847.7780901727609
 30
0.0
 10
-281.2855726812477
 20
845.9492357552716
 30
0.0
 10
-287.4072142377499
 20
843.4301122276278
 30
0.0
 10
-293.0612131077069
 20
842.5368634252169
 30
0.0
 10
-296.8386689540012
 20
842.5371986722952
 30
0.0
  0
SPLINE
  5
4F
330
1F
100
AcDbEntity
  8
Miura_Table_9580-01_2D
100
AcDbSpline
210
0.0
220
0.0
230
1.0
 70
     8
 71
     3
 72
    12
 73
     8
 74
     0
 42
0.0000000001
 43
0.0000000001
 40
0.0
 40
0.0
 40
0.0
 40
0.0
 40
0.215147148445352
 40
0.4344126759933203
 40
1.014845999299492
 40
1.738325432821743
 40
2.240259627195612
 40
2.240259627195612
 40
2.240259627195612
 40
2.240259627195612
 10
-273.9688750898604
 20
850.8741923257054
 30
0.0
 10
-274.0159259474485
 20
850.8196308575349
 30
0.0
 10
-274.1117427912186
 20
850.7110020535155
 30
0.0
 10
-274.3480748802249
 20
850.4688427788896
 30
0.0
 10
-274.7200804379763
 20
850.1230925557749
 30
0.0
 10
-275.1738820248092
 20
849.7275872788622
 30
0.0
 10
-275.4920940063394
 20
849.4711857528204
 30
0.0
 10
-275.6288964529413
 20
849.3743083487294
 30
0.0
  0
SPLINE
  5
50
330
1F
100
AcDbEntity
  8
Miura_Table_9580-01_2D
100
AcDbSpline
210
0.0
220
0.0
230
1.0
 70
    24
 71
     2
 72
     6
 73
     3
 74
     0
 42
0.0000000001
 43
0.0000000001
 40
0.0
 40
0.0
 40
0.0
 40
0.5244136134753632
 40
0.5244136134753632
 40
0.5244136134753632
 10
-273.6253322211778
 20
851.2708812734087
 30
0.0
 10
-273.7971036555191
 20
851.072536799557
 30
0.0
 10
-273.9688750898604
 20
850.8741923257054
 30
0.0
  0
SPLINE
  5
51
330
1F
100
AcDbEntity
  8
Miura_Table_9580-01_2D
100
AcDbSpline
210
0.0
220
0.0
230
1.0
 70
     8
 71
     3
 72
    13
 73
     9
 74
     0
 42
0.0000000001
 43
0.0000000001
 40
0.0
 40
0.0
 40
0.0
 40
0.0
 40
0.0842084935809858
 40
0.1523207872208179
 40
0.275918593398183
 40
0.3976132335562294
 40
0.4611173083935368
 40
0.5436834943217632
 40
0.5436834943217632
 40
0.5436834943217632
 40
0.5436834943217632
 10
-273.7942544875414
 20
851.6243536608041
 30
0.0
 10
-273.7662831383977
 20
851.6243217607406
 30
0.0
 10
-273.715119712424
 20
851.6209910364704
 30
0.0
 10
-273.6264887451425
 20
851.5958159927485
 30
0.0
 10
-273.5444355285881
 20
851.520241490107
 30
0.0
 10
-273.5364938464672
 20
851.4102712369703
 30
0.0
 10
-273.5759292986259
 20
851.3291290095593
 30
0.0
 10
-273.6070800395864
 20
851.2915178657614
 30
0.0
 10
-273.6253322211778
 20
851.2708812734087
 30
0.0
  0
SPLINE
  5
52
330
1F
100
AcDbEntity
  8
Miura_Table_9580-01_2D
100
AcDbSpline
210
0.0
220
0.0
230
1.0
 70
    12
 71
     2
 72
     6
 73
     3
 74
     0
 42
0.0000000001
 43
0.0000000001
 40
0.0
 40
0.0
 40
0.0
 40
11.69797561871451
 40
11.69797561871451
 40
11.69797561871451
 10
-11.69797530693996
 20
1219.329367301891
 30
0.0
 41
1.0
 10
-5.849093833787275
 20
1219.329367268882
 30
0.0
 41
1.0
 10
-0.0002123606354969
 20
1219.329367295785
 30
0.0
 41
1.0
  0
SPLINE
  5
53
330
1F
100
AcDbEntity
  8
Miura_Table_9580-01_2D
100
AcDbSpline
210
0.0
220
0.0
230
1.0
 70
    12
 71
     3
 72
    10
 73
     6
 74
     0
 42
0.0000000001
 43
0.0000000001
 40
-1.411401651021521
 40
-1.411401651021521
 40
-1.411401651021521
 40
-1.411401651021521
 40
-0.7080503722075561
 40
-0.7080503722075561
 40
-0.0049548029583888
 40
-0.0049548029583888
 40
-0.0049548029583888
 40
-0.0049548029583888
 10
-12.56074352844554
 20
1220.165477035191
 30
0.0
 41
1.0
 10
-12.52714964274857
 20
1219.931615297221
 30
0.0
 41
1.0
 10
-12.42319759158637
 20
1219.719630680601
 30
0.0
 41
1.0
 10
-12.10781020657397
 20
1219.413085391775
 30
0.0
 41
1.0
 10
-11.9074083173764
 20
1219.329361933901
 30
0.0
 41
1.0
 10
-11.69797530693996
 20
1219.329367301891
 30
0.0
 41
1.0
  0
SPLINE
  5
54
330
1F
100
AcDbEntity
  8
Miura_Table_9580-01_2D
100
AcDbSpline
210
0.0
220
0.0
230
1.0
 70
     8
 71
     3
 72
    18
 73
    14
 74
     0
 42
0.0000000001
 43
0.0000000001
 40
-11.35744832993483
 40
-11.35744832993483
 40
-11.35744832993483
 40
-11.35744832993483
 40
-7.387935346890758
 40
-6.716881895257425
 40
-6.413782533532999
 40
-6.129926738348679
 40
-5.827549416049516
 40
-5.506991273313297
 40
-4.870777299577194
 40
-3.713958932632885
 40
-2.530514856758515
 40
-1.285072805565842
 40
0.0
 40
0.0
 40
0.0
 40
0.0
 10
-21.65120270755416
 20
1224.329367396001
 30
0.0
 10
-20.32802257090226
 20
1224.329256404363
 30
0.0
 10
-18.78119149766645
 20
1224.329561420393
 30
0.0
 10
-17.13327648800442
 20
1224.329212954119
 30
0.0
 10
-16.71398513425448
 20
1224.329782407801
 30
0.0
 10
-16.41738650133267
 20
1224.330115343881
 30
0.0
 10
-16.11621752537941
 20
1224.298982462753
 30
0.0
 10
-15.70452936415223
 20
1224.215490279126
 30
0.0
 10
-15.03817042510037
 20
1223.976642477764
 30
0.0
 10
-14.20254755704174
 20
1223.423168584514
 30
0.0
 10
-13.40908261565711
 20
1222.516847367828
 30
0.0
 10
-12.83340723724269
 20
1221.41151787308
 30
0.0
 10
-12.62152456793048
 20
1220.589453853665
 30
0.0
 10
-12.56074352844554
 20
1220.165477035191
 30
0.0
  0
LINE
  5
55
330
1F
100
AcDbEntity
  8
Miura_Table_9580-01_2D
100
AcDbLine
 10
-23.85294376439198
 20
1224.329459739994
 30
0.0
 11
-21.65120270755416
 21
1224.329367396001
 31
0.0
  0
SPLINE
  5
56
330
1F
100
AcDbEntity
  8
Miura_Table_9580-01_2D
100
AcDbSpline
210
0.0
220
0.0
230
1.0
 70
     8
 71
     3
 72
    15
 73
    11
 74
     0
 42
0.0000000001
 43
0.0000000001
 40
0.0
 40
0.0
 40
0.0
 40
0.0
 40
0.9361505302432512
 40
1.592389293923229
 40
2.107271700881924
 40
2.520270126564129
 40
2.899529664530077
 40
3.247808135525447
 40
3.588551735127004
 40
3.919177605417826
 40
3.919177605417826
 40
3.919177605417826
 40
3.919177605417826
 10
-25.12450981285384
 20
1220.91858890005
 30
0.0
 10
-25.11265364739939
 20
1221.230408194559
 30
0.0
 10
-25.0904766686872
 20
1221.760793001003
 30
0.0
 10
-25.03423411233781
 20
1222.461161111656
 30
0.0
 10
-24.95572246430312
 20
1222.983842208062
 30
0.0
 10
-24.84167179300858
 20
1223.405447879837
 30
0.0
 10
-24.67785674094285
 20
1223.750909899874
 30
0.0
 10
-24.45194335542784
 20
1224.029907978345
 30
0.0
 10
-24.17345661530636
 20
1224.230334951118
 30
0.0
 10
-23.9608234353109
 20
1224.306884209457
 30
0.0
 10
-23.85294376439198
 20
1224.329459739994
 30
0.0
  0
SPLINE
  5
57
330
1F
100
AcDbEntity
  8
Miura_Table_9580-01_2D
100
AcDbSpline
210
0.0
220
0.0
230
1.0
 70
     8
 71
     5
 72
    12
 73
     6
 74
     0
 42
0.0000000001
 43
0.0000000001
 40
-1.0
 40
-1.0
 40
-1.0
 40
-1.0
 40
-1.0
 40
-1.0
 40
0.0
 40
0.0
 40
0.0
 40
0.0
 40
0.0
 40
0.0
 10
-25.15063961904799
 20
1220.165762530346
 30
0.0
 10
-25.14535140965928
 20
1220.316325630836
 30
0.0
 10
-25.14032381387734
 20
1220.466897884826
 30
0.0
 10
-25.13572893765651
 20
1220.617485872132
 30
0.0
 10
-25.13023399996292
 20
1220.768041744415
 30
0.0
 10
-25.12450981285384
 20
1220.91858890005
 30
0.0
  0
SPLINE
  5
58
330
1F
100
AcDbEntity
  8
Miura_Table_9580-01_2D
100
AcDbSpline
210
0.0
220
0.0
230
1.0
 70
    12
 71
     2
 72
     6
 73
     3
 74
     0
 42
0.0000000001
 43
0.0000000001
 40
-0.3764503268402766
 40
-0.3764503268402766
 40
-0.3764503268402766
 40
0.0
 40
0.0
 40
0.0
 10
-25.16450434144918
 20
1219.789567797976
 30
0.0
 41
1.0
 10
-25.15724656110803
 20
1219.977653170782
 30
0.0
 41
0.9999985034549737
 10
-25.15063961904799
 20
1220.165762530346
 30
0.0
 41
1.0
  0
SPLINE
  5
59
330
1F
100
AcDbEntity
  8
Miura_Table_9580-01_2D
100
AcDbSpline
210
0.0
220
0.0
230
1.0
 70
    12
 71
     2
 72
     6
 73
     3
 74
     0
 42
0.0000000001
 43
0.0000000001
 40
-0.8650636015552053
 40
-0.8650636015552053
 40
-0.8650636015552053
 40
0.0
 40
0.0
 40
0.0
 10
-25.2031541899897
 20
1218.925369508339
 30
0.0
 41
0.9999999999998899
 10
-25.18245262805398
 20
1219.357407085303
 30
0.0
 41
0.9999949169942275
 10
-25.16450434144918
 20
1219.789567797976
 30
0.0
 41
1.0
  0
SPLINE
  5
5A
330
1F
100
AcDbEntity
  8
Miura_Table_9580-01_2D
100
AcDbSpline
210
0.0
220
0.0
230
1.0
 70
    12
 71
     2
 72
     6
 73
     3
 74
     0
 42
0.0000000001
 43
0.0000000001
 40
0.0
 40
0.0
 40
0.0
 40
0.0174069048050353
 40
0.0174069048050353
 40
0.0174069048050353
 10
-25.20390396217409
 20
1218.907978756885
 30
0.0
 41
1.0
 10
-25.20352919290612
 20
1218.916674137558
 30
0.0
 41
0.9999999593102533
 10
-25.20315418998963
 20
1218.925369508339
 30
0.0
 41
1.0
  0
SPLINE
  5
5B
330
1F
100
AcDbEntity
  8
Miura_Table_9580-01_2D
100
AcDbSpline
210
0.0
220
0.0
230
1.0
 70
    12
 71
     2
 72
     6
 73
     3
 74
     0
 42
0.0000000001
 43
0.0000000001
 40
-0.0038962172915295
 40
-0.0038962172915295
 40
-0.0038962172915295
 40
0.0
 40
0.0
 40
0.0
 10
-25.20405249918896
 20
1218.904085324745
 30
0.0
 41
1.0
 10
-25.20398985246563
 20
1218.906032540705
 30
0.0
 41
0.9999999970873399
 10
-25.20390396217409
 20
1218.907978756885
 30
0.0
 41
1.0
  0
SPLINE
  5
5C
330
1F
100
AcDbEntity
  8
Miura_Table_9580-01_2D
100
AcDbSpline
210
0.0
220
0.0
230
1.0
 70
     8
 71
     3
 72
    15
 73
    11
 74
     0
 42
0.0000000001
 43
0.0000000001
 40
0.0
 40
0.0
 40
0.0
 40
0.0
 40
2.763377139235543
 40
5.271537957085918
 40
10.5998510122942
 40
21.59382453005134
 40
32.87822943471981
 40
38.64978450157577
 40
41.3966023543671
 40
44.15779849543482
 40
44.15779849543482
 40
44.15779849543482
 40
44.15779849543482
 10
-37.86058545335801
 20
1177.097893676258
 30
0.0
 10
-37.37588947208224
 20
1177.881020366183
 30
0.0
 10
-36.45841320222554
 20
1179.380260728276
 30
0.0
 10
-34.73629597879063
 20
1182.465893037582
 30
0.0
 10
-31.96727534510411
 20
1188.103494639101
 30
0.0
 10
-28.7536173184808
 20
1196.746791622182
 30
0.0
 10
-26.61448722374008
 20
1205.866909600545
 30
0.0
 10
-25.6999107658785
 20
1212.407288932834
 30
0.0
 10
-25.35096906454329
 20
1216.151372664977
 30
0.0
 10
-25.24417480083049
 20
1217.984599969852
 30
0.0
 10
-25.20405249918896
 20
1218.904085324745
 30
0.0
  0
SPLINE
  5
5D
330
1F
100
AcDbEntity
  8
Miura_Table_9580-01_2D
100
AcDbSpline
210
0.0
220
0.0
230
1.0
 70
     8
 71
     5
 72
    12
 73
     6
 74
     0
 42
0.0000000001
 43
0.0000000001
 40
-1.0
 40
-1.0
 40
-1.0
 40
-1.0
 40
-1.0
 40
-1.0
 40
0.0
 40
0.0
 40
0.0
 40
0.0
 40
0.0
 40
0.0
 10
-37.87721928705833
 20
1177.070951060732
 30
0.0
 10
-37.87389004900343
 20
1177.076338057314
 30
0.0
 10
-37.87056091958858
 20
1177.081725121036
 30
0.0
 10
-37.86725117822881
 20
1177.087124166299
 30
0.0
 10
-37.8639182378438
 20
1177.092508873034
 30
0.0
 10
-37.86058545335801
 20
1177.097893676258
 30
0.0
  0
SPLINE
  5
5E
330
1F
100
AcDbEntity
  8
Miura_Table_9580-01_2D
100
AcDbSpline
210
0.0
220
0.0
230
1.0
 70
     8
 71
     3
 72
    18
 73
    14
 74
     0
 42
0.0000000001
 43
0.0000000001
 40
0.0
 40
0.0
 40
0.0
 40
0.0
 40
1.224399517688125
 40
3.216127340650388
 40
5.359452356478953
 40
6.616257952753485
 40
8.473068222320627
 40
11.37665901709092
 40
13.15870189535763
 40
18.5887311986106
 40
21.30318735092228
 40
22.53576743944416
 40
23.95196467547641
 40
23.95196467547641
 40
23.95196467547641
 40
23.95196467547641
 10
-52.50665096721514
 20
1158.149979105131
 30
0.0
 10
-52.23975132457509
 20
1158.458751391808
 30
0.0
 10
-51.53841222842858
 20
1159.2695365664
 30
0.0
 10
-50.37022224334761
 20
1160.621179957376
 30
0.0
 10
-49.18944519123216
 20
1161.976143115409
 30
0.0
 10
-48.03902093238231
 20
1163.297969678529
 30
0.0
 10
-46.73393775429032
 20
1164.821015018219
 30
0.0
 10
-45.34309688435315
 20
1166.501042385892
 30
0.0
 10
-43.25649248572427
 20
1169.14992001236
 30
0.0
 10
-41.30113304855059
 20
1171.820658000804
 30
0.0
 10
-39.55744785552361
 20
1174.415125139723
 30
0.0
 10
-38.59092881380275
 20
1175.919136681904
 30
0.0
 10
-38.12539052080229
 20
1176.669388431148
 30
0.0
 10
-37.87721928705833
 20
1177.070951060732
 30
0.0
  0
SPLINE
  5
5F
330
1F
100
AcDbEntity
  8
Miura_Table_9580-01_2D
100
AcDbSpline
210
0.0
220
0.0
230
1.0
 70
     8
 71
     5
 72
    12
 73
     6
 74
     0
 42
0.0000000001
 43
0.0000000001
 40
-1.0
 40
-1.0
 40
-1.0
 40
-1.0
 40
-1.0
 40
-1.0
 40
0.0
 40
0.0
 40
0.0
 40
0.0
 40
0.0
 40
0.0
 10
-52.54829839391096
 20
1158.101888932695
 30
0.0
 10
-52.53996893084696
 20
1158.111506986473
 30
0.0
 10
-52.53163946778296
 20
1158.121125040252
 30
0.0
 10
-52.52329182290033
 20
1158.130727362983
 30
0.0
 10
-52.51497143958023
 20
1158.140353272542
 30
0.0
 10
-52.50665096721514
 20
1158.149979105131
 30
0.0
  0
SPLINE
  5
60
330
1F
100
AcDbEntity
  8
Miura_Table_9580-01_2D
100
AcDbSpline
210
0.0
220
0.0
230
1.0
 70
    24
 71
     2
 72
     6
 73
     3
 74
     0
 42
0.0000000001
 43
0.0000000001
 40
0.0
 40
0.0
 40
0.0
 40
405.4330160665159
 40
405.4330160665159
 40
405.4330160665159
 10
-317.9659450783047
 20
851.6234064621414
 30
0.0
 10
-185.2571217361078
 20
1004.862647697418
 30
0.0
 10
-52.54829839391096
 20
1158.101888932695
 30
0.0
  0
LINE
  5
61
330
1F
100
AcDbEntity
  8
Miura_Table_9580-01_2D
100
AcDbLine
 10
-273.2978207079132
 20
851.6239910687433
 30
0.0
 11
-317.9659450783047
 21
851.6234064621414
 31
0.0
  0
SPLINE
  5
62
330
1F
100
AcDbEntity
  8
Miura_Table_9580-01_2D
100
AcDbSpline
210
0.0
220
0.0
230
1.0
 70
    24
 71
     2
 72
     6
 73
     3
 74
     0
 42
0.0000000001
 43
0.0000000001
 40
0.0
 40
0.0
 40
0.0
 40
382.1184799122444
 40
382.1184799122444
 40
382.1184799122444
 10
-23.14272770193203
 20
1140.478176045979
 30
0.0
 10
-148.2202742049226
 20
996.0510835573609
 30
0.0
 10
-273.2978207079132
 20
851.6239910687433
 30
0.0
  0
SPLINE
  5
63
330
1F
100
AcDbEntity
  8
Miura_Table_9580-01_2D
100
AcDbSpline
210
0.0
220
0.0
230
1.0
 70
     8
 71
     5
 72
    12
 73
     6
 74
     0
 42
0.0000000001
 43
0.0000000001
 40
0.0
 40
0.0
 40
0.0
 40
0.0
 40
0.0
 40
0.0
 40
1.0
 40
1.0
 40
1.0
 40
1.0
 40
1.0
 40
1.0
 10
-23.1282492748942
 20
1140.494552219068
 30
0.0
 10
-23.13113593759227
 20
1140.491269029422
 30
0.0
 10
-23.13402252887682
 20
1140.487985776988
 30
0.0
 10
-23.13700374348992
 20
1140.484785503058
 30
0.0
 10
-23.13986572271098
 20
1140.481480774518
 30
0.0
 10
-23.14272770193203
 20
1140.478176045979
 30
0.0
  0
SPLINE
  5
64
330
1F
100
AcDbEntity
  8
Miura_Table_9580-01_2D
100
AcDbSpline
210
0.0
220
0.0
230
1.0
 70
     8
 71
     3
 72
    15
 73
    11
 74
     0
 42
0.0000000001
 43
0.0000000001
 40
0.0
 40
0.0
 40
0.0
 40
0.0
 40
0.8793827298841641
 40
1.776264706140459
 40
3.639233357410877
 40
7.666287083349559
 40
9.953021317401364
 40
12.30992601284868
 40
14.68355992114336
 40
17.32695060162204
 40
17.32695060162204
 40
17.32695060162204
 40
17.32695060162204
 10
-10.20852652435225
 20
1151.931091711756
 30
0.0
 10
-10.46186959025
 20
1151.783802183239
 30
0.0
 10
-10.96997610886048
 20
1151.47926554162
 30
0.0
 10
-11.99016867559386
 20
1150.823427211342
 30
0.0
 10
-13.84445955659886
 20
1149.524618034842
 30
0.0
 10
-15.94418193196544
 20
1147.783181384574
 30
0.0
 10
-18.0741905812256
 20
1145.829333552414
 30
0.0
 10
-19.73867716786664
 20
1144.185262443825
 30
0.0
 10
-21.43544190133344
 20
1142.406570005714
 30
0.0
 10
-22.54647285941247
 20
1141.156244457983
 30
0.0
 10
-23.1282492748942
 20
1140.494552219068
 30
0.0
  0
SPLINE
  5
65
330
1F
100
AcDbEntity
  8
Miura_Table_9580-01_2D
100
AcDbSpline
210
0.0
220
0.0
230
1.0
 70
    12
 71
     2
 72
     6
 73
     3
 74
     0
 42
0.0000000001
 43
0.0000000001
 40
-0.1469556320606097
 40
-0.1469556320606097
 40
-0.1469556320606097
 40
0.0
 40
0.0
 40
0.0
 10
-10.08165875701981
 20
1152.005257006473
 30
0.0
 41
1.0
 10
-10.144999733902
 20
1151.968015469336
 30
0.0
 41
0.9999969449633207
 10
-10.20852652435225
 20
1151.931091711756
 30
0.0
 41
1.0
  0
SPLINE
  5
66
330
1F
100
AcDbEntity
  8
Miura_Table_9580-01_2D
100
AcDbSpline
210
0.0
220
0.0
230
1.0
 70
     8
 71
     5
 72
    12
 73
     6
 74
     0
 42
0.0000000001
 43
0.0000000001
 40
0.0
 40
0.0
 40
0.0
 40
0.0
 40
0.0
 40
0.0
 40
1.0
 40
1.0
 40
1.0
 40
1.0
 40
1.0
 40
1.0
 10
-10.06502878969333
 20
1152.015026499024
 30
0.0
 10
-10.06835569933265
 20
1152.013074160895
 30
0.0
 10
-10.07168215804451
 20
1152.011121054357
 30
0.0
 10
-10.07500851569786
 20
1152.00916777346
 30
0.0
 10
-10.07833347566612
 20
1152.007212116659
 30
0.0
 10
-10.08165875701981
 20
1152.005257006473
 30
0.0
  0
SPLINE
  5
67
330
1F
100
AcDbEntity
  8
Miura_Table_9580-01_2D
100
AcDbSpline
210
0.0
220
0.0
230
1.0
 70
    12
 71
     2
 72
     6
 73
     3
 74
     0
 42
0.0000000001
 43
0.0000000001
 40
-1.059455396730206
 40
-1.059455396730206
 40
-1.059455396730206
 40
0.0
 40
0.0
 40
0.0
 10
-9.138077268464269
 20
1152.527828350127
 30
0.0
 41
1.0
 10
-9.608060415222647
 20
1152.283190314027
 30
0.0
 41
0.9996780901699671
 10
-10.06502878969333
 20
1152.015026499024
 30
0.0
 41
1.0
  0
SPLINE
  5
68
330
1F
100
AcDbEntity
  8
Miura_Table_9580-01_2D
100
AcDbSpline
210
0.0
220
0.0
230
1.0
 70
     8
 71
     5
 72
    12
 73
     6
 74
     0
 42
0.0000000001
 43
0.0000000001
 40
-1.0
 40
-1.0
 40
-1.0
 40
-1.0
 40
-1.0
 40
-1.0
 40
0.0
 40
0.0
 40
0.0
 40
0.0
 40
0.0
 40
0.0
 10
-7.886179101621575
 20
1153.127262067818
 30
0.0
 10
-8.140460587838799
 20
1153.015890088178
 30
0.0
 10
-8.392919921901932
 20
1152.900357820111
 30
0.0
 10
-8.64346663698235
 20
1152.780083741225
 30
0.0
 10
-8.89183718403093
 20
1152.656002500798
 30
0.0
 10
-9.138077268464269
 20
1152.527828350127
 30
0.0
  0
SPLINE
  5
69
330
1F
100
AcDbEntity
  8
Miura_Table_9580-01_2D
100
AcDbSpline
210
0.0
220
0.0
230
1.0
 70
     8
 71
     3
 72
    11
 73
     7
 74
     0
 42
0.0000000001
 43
0.0000000001
 40
-7.168114128633167
 40
-7.168114128633167
 40
-7.168114128633167
 40
-7.168114128633167
 40
-3.620644636221537
 40
-1.83413863357669
 40
-0.9078897846316704
 40
0.0
 40
0.0
 40
0.0
 40
0.0
 10
-0.9518539976625204
 20
1154.780992033423
 30
0.0
 10
-2.132894659215718
 20
1154.721458483308
 30
0.0
 10
-3.900065845601612
 20
1154.467025503895
 30
0.0
 10
-5.907992042351007
 20
1153.891183979004
 30
0.0
 10
-7.043673125822361
 20
1153.481984523028
 30
0.0
 10
-7.608985579817282
 20
1153.248669220678
 30
0.0
 10
-7.886179101621575
 20
1153.127262067818
 30
0.0
  0
SPLINE
  5
6A
330
1F
100
AcDbEntity
  8
Miura_Table_9580-01_2D
100
AcDbSpline
210
0.0
220
0.0
230
1.0
 70
    12
 71
     2
 72
     6
 73
     3
 74
     0
 42
0.0000000001
 43
0.0000000001
 40
0.0
 40
0.0
 40
0.0
 40
1.522042370303902
 40
1.522042370303902
 40
1.522042370303902
 10
-0.0002123606356149
 20
1155.779089624509
 30
0.0
 41
0.9999999691280613
 10
-0.0003450956886172
 20
1154.826493387197
 30
0.0
 41
0.7239225688158022
 10
-0.9518539976625204
 20
1154.780992033423
 30
0.0
 41
1.0
  0
SPLINE
  5
6B
330
1F
100
AcDbEntity
  8
Miura_Table_9580-01_2D
100
AcDbSpline
210
0.0
220
0.0
230
1.0
 70
    12
 71
     2
 72
     6
 73
     3
 74
     0
 42
0.0000000001
 43
0.0000000001
 40
-1.522042370303902
 40
-1.522042370303902
 40
-1.522042370303902
 40
0.0
 40
0.0
 40
0.0
 10
0.9514292763915266
 20
1154.780992033423
 30
0.0
 41
1.0
 10
-0.0000796255818764
 20
1154.826493387196
 30
0.0
 41
0.7239225688158022
 10
-0.0002123606356149
 20
1155.779089624509
 30
0.0
 41
0.9999999691280613
  0
SPLINE
  5
6C
330
1F
100
AcDbEntity
  8
Miura_Table_9580-01_2D
100
AcDbSpline
210
0.0
220
0.0
230
1.0
 70
     8
 71
     3
 72
    11
 73
     7
 74
     0
 42
0.0000000001
 43
0.0000000001
 40
0.0
 40
0.0
 40
0.0
 40
0.0
 40
0.9078897846316704
 40
1.83413863357669
 40
3.620644636221537
 40
7.168114128633167
 40
7.168114128633167
 40
7.168114128633167
 40
7.168114128633167
 10
7.885754380350581
 20
1153.127262067818
 30
0.0
 10
7.608560858546288
 20
1153.248669220678
 30
0.0
 10
7.043248404551368
 20
1153.481984523028
 30
0.0
 10
5.907567321080013
 20
1153.891183979004
 30
0.0
 10
3.899641124330619
 20
1154.467025503895
 30
0.0
 10
2.132469937944724
 20
1154.721458483308
 30
0.0
 10
0.9514292763915266
 20
1154.780992033423
 30
0.0
  0
SPLINE
  5
6D
330
1F
100
AcDbEntity
  8
Miura_Table_9580-01_2D
100
AcDbSpline
210
0.0
220
0.0
230
1.0
 70
     8
 71
     5
 72
    12
 73
     6
 74
     0
 42
0.0000000001
 43
0.0000000001
 40
0.0
 40
0.0
 40
0.0
 40
0.0
 40
0.0
 40
0.0
 40
1.0
 40
1.0
 40
1.0
 40
1.0
 40
1.0
 40
1.0
 10
9.137652547193273
 20
1152.527828350127
 30
0.0
 10
8.891412462759934
 20
1152.656002500798
 30
0.0
 10
8.643041915711354
 20
1152.780083741225
 30
0.0
 10
8.392495200630936
 20
1152.900357820111
 30
0.0
 10
8.140035866567803
 20
1153.015890088178
 30
0.0
 10
7.885754380350581
 20
1153.127262067818
 30
0.0
  0
SPLINE
  5
6E
330
1F
100
AcDbEntity
  8
Miura_Table_9580-01_2D
100
AcDbSpline
210
0.0
220
0.0
230
1.0
 70
    12
 71
     2
 72
     6
 73
     3
 74
     0
 42
0.0000000001
 43
0.0000000001
 40
0.0
 40
0.0
 40
0.0
 40
1.059455396730206
 40
1.059455396730206
 40
1.059455396730206
 10
10.06460406842233
 20
1152.015026499024
 30
0.0
 41
1.0
 10
9.60763569395127
 20
1152.283190314027
 30
0.0
 41
0.9996780901699671
 10
9.137652547193273
 20
1152.527828350127
 30
0.0
 41
1.0
  0
SPLINE
  5
6F
330
1F
100
AcDbEntity
  8
Miura_Table_9580-01_2D
100
AcDbSpline
210
0.0
220
0.0
230
1.0
 70
     8
 71
     5
 72
    12
 73
     6
 74
     0
 42
0.0000000001
 43
0.0000000001
 40
-1.0
 40
-1.0
 40
-1.0
 40
-1.0
 40
-1.0
 40
-1.0
 40
0.0
 40
0.0
 40
0.0
 40
0.0
 40
0.0
 40
0.0
 10
10.08123403574881
 20
1152.005257006473
 30
0.0
 10
10.07790875439513
 20
1152.007212116659
 30
0.0
 10
10.07458379442686
 20
1152.00916777346
 30
0.0
 10
10.07125743677351
 20
1152.011121054357
 30
0.0
 10
10.06793097806166
 20
1152.013074160895
 30
0.0
 10
10.06460406842233
 20
1152.015026499024
 30
0.0
  0
SPLINE
  5
70
330
1F
100
AcDbEntity
  8
Miura_Table_9580-01_2D
100
AcDbSpline
210
0.0
220
0.0
230
1.0
 70
    12
 71
     2
 72
     6
 73
     3
 74
     0
 42
0.0000000001
 43
0.0000000001
 40
0.0
 40
0.0
 40
0.0
 40
0.1469556320606097
 40
0.1469556320606097
 40
0.1469556320606097
 10
10.20810180308125
 20
1151.931091711756
 30
0.0
 41
1.0
 10
10.14457501263128
 20
1151.968015469336
 30
0.0
 41
0.9999969449633207
 10
10.08123403574881
 20
1152.005257006473
 30
0.0
 41
1.0
  0
SPLINE
  5
71
330
1F
100
AcDbEntity
  8
Miura_Table_9580-01_2D
100
AcDbSpline
210
0.0
220
0.0
230
1.0
 70
     8
 71
     3
 72
    15
 73
    11
 74
     0
 42
0.0000000001
 43
0.0000000001
 40
-17.32695060162204
 40
-17.32695060162204
 40
-17.32695060162204
 40
-17.32695060162204
 40
-14.68355992114336
 40
-12.30992601284868
 40
-9.953021317401364
 40
-7.666287083349559
 40
-3.639233357410877
 40
-1.776264706140459
 40
-0.8793827298841641
 40
0.0
 40
0.0
 40
0.0
 40
0.0
 10
23.1278245536232
 20
1140.494552219068
 30
0.0
 10
22.54604813814148
 20
1141.156244457983
 30
0.0
 10
21.43501718006245
 20
1142.406570005714
 30
0.0
 10
19.73825244659564
 20
1144.185262443825
 30
0.0
 10
18.07376585995461
 20
1145.829333552414
 30
0.0
 10
15.94375721069445
 20
1147.783181384574
 30
0.0
 10
13.84403483532786
 20
1149.524618034842
 30
0.0
 10
11.98974395432286
 20
1150.823427211342
 30
0.0
 10
10.96955138758948
 20
1151.47926554162
 30
0.0
 10
10.461444868979
 20
1151.783802183239
 30
0.0
 10
10.20810180308125
 20
1151.931091711756
 30
0.0
  0
SPLINE
  5
72
330
1F
100
AcDbEntity
  8
Miura_Table_9580-01_2D
100
AcDbSpline
210
0.0
220
0.0
230
1.0
 70
     8
 71
     5
 72
    12
 73
     6
 74
     0
 42
0.0000000001
 43
0.0000000001
 40
-1.0
 40
-1.0
 40
-1.0
 40
-1.0
 40
-1.0
 40
-1.0
 40
0.0
 40
0.0
 40
0.0
 40
0.0
 40
0.0
 40
0.0
 10
23.14230298066103
 20
1140.478176045979
 30
0.0
 10
23.13944100143998
 20
1140.481480774518
 30
0.0
 10
23.13657902221893
 20
1140.484785503058
 30
0.0
 10
23.13359780760583
 20
1140.487985776988
 30
0.0
 10
23.13071121632128
 20
1140.491269029422
 30
0.0
 10
23.1278245536232
 20
1140.494552219068
 30
0.0
  0
SPLINE
  5
73
330
1F
100
AcDbEntity
  8
Miura_Table_9580-01_2D
100
AcDbSpline
210
0.0
220
0.0
230
1.0
 70
    24
 71
     2
 72
     6
 73
     3
 74
     0
 42
0.0000000001
 43
0.0000000001
 40
-382.1184799122444
 40
-382.1184799122444
 40
-382.1184799122444
 40
0.0
 40
0.0
 40
0.0
 10
273.2973959866422
 20
851.6239910687433
 30
0.0
 10
148.2198494836516
 20
996.0510835573609
 30
0.0
 10
23.14230298066103
 20
1140.478176045979
 30
0.0
  0
LINE
  5
74
330
1F
100
AcDbEntity
  8
Miura_Table_9580-01_2D
100
AcDbLine
 10
317.9655203570337
 20
851.6234064621414
 30
0.0
 11
273.2973959866422
 21
851.6239910687433
 31
0.0
  0
SPLINE
  5
75
330
1F
100
AcDbEntity
  8
Miura_Table_9580-01_2D
100
AcDbSpline
210
0.0
220
0.0
230
1.0
 70
    24
 71
     2
 72
     6
 73
     3
 74
     0
 42
0.0000000001
 43
0.0000000001
 40
-405.4330160665159
 40
-405.4330160665159
 40
-405.4330160665159
 40
0.0
 40
0.0
 40
0.0
 10
52.54787367263997
 20
1158.101888932695
 30
0.0
 10
185.2566970148368
 20
1004.862647697418
 30
0.0
 10
317.9655203570337
 20
851.6234064621414
 30
0.0
  0
SPLINE
  5
76
330
1F
100
AcDbEntity
  8
Miura_Table_9580-01_2D
100
AcDbSpline
210
0.0
220
0.0
230
1.0
 70
     8
 71
     5
 72
    12
 73
     6
 74
     0
 42
0.0000000001
 43
0.0000000001
 40
0.0
 40
0.0
 40
0.0
 40
0.0
 40
0.0
 40
0.0
 40
1.0
 40
1.0
 40
1.0
 40
1.0
 40
1.0
 40
1.0
 10
52.50622624594416
 20
1158.149979105131
 30
0.0
 10
52.51454671830924
 20
1158.140353272542
 30
0.0
 10
52.52286710162934
 20
1158.130727362983
 30
0.0
 10
52.53121474651197
 20
1158.121125040252
 30
0.0
 10
52.53954420957597
 20
1158.111506986473
 30
0.0
 10
52.54787367263997
 20
1158.101888932695
 30
0.0
  0
SPLINE
  5
77
330
1F
100
AcDbEntity
  8
Miura_Table_9580-01_2D
100
AcDbSpline
210
0.0
220
0.0
230
1.0
 70
     8
 71
     3
 72
    18
 73
    14
 74
     0
 42
0.0000000001
 43
0.0000000001
 40
-23.95196467547641
 40
-23.95196467547641
 40
-23.95196467547641
 40
-23.95196467547641
 40
-22.53576743944416
 40
-21.30318735092228
 40
-18.5887311986106
 40
-13.15870189535763
 40
-11.37665901709092
 40
-8.473068222320627
 40
-6.616257952753485
 40
-5.359452356478953
 40
-3.216127340650388
 40
-1.224399517688125
 40
0.0
 40
0.0
 40
0.0
 40
0.0
 10
37.87679456578734
 20
1177.070951060732
 30
0.0
 10
38.1249657995313
 20
1176.669388431148
 30
0.0
 10
38.59050409253177
 20
1175.919136681904
 30
0.0
 10
39.55702313425262
 20
1174.415125139723
 30
0.0
 10
41.3007083272796
 20
1171.820658000804
 30
0.0
 10
43.25606776445328
 20
1169.14992001236
 30
0.0
 10
45.34267216308216
 20
1166.501042385892
 30
0.0
 10
46.73351303301933
 20
1164.821015018219
 30
0.0
 10
48.03859621111132
 20
1163.297969678529
 30
0.0
 10
49.18902046996117
 20
1161.976143115409
 30
0.0
 10
50.36979752207662
 20
1160.621179957376
 30
0.0
 10
51.53798750715759
 20
1159.2695365664
 30
0.0
 10
52.2393266033041
 20
1158.458751391808
 30
0.0
 10
52.50622624594416
 20
1158.149979105131
 30
0.0
  0
SPLINE
  5
78
330
1F
100
AcDbEntity
  8
Miura_Table_9580-01_2D
100
AcDbSpline
210
0.0
220
0.0
230
1.0
 70
     8
 71
     5
 72
    12
 73
     6
 74
     0
 42
0.0000000001
 43
0.0000000001
 40
0.0
 40
0.0
 40
0.0
 40
0.0
 40
0.0
 40
0.0
 40
1.0
 40
1.0
 40
1.0
 40
1.0
 40
1.0
 40
1.0
 10
37.86016073208702
 20
1177.097893676258
 30
0.0
 10
37.86349351657281
 20
1177.092508873034
 30
0.0
 10
37.86682645695782
 20
1177.087124166299
 30
0.0
 10
37.87013619831759
 20
1177.081725121036
 30
0.0
 10
37.87346532773244
 20
1177.076338057314
 30
0.0
 10
37.87679456578734
 20
1177.070951060732
 30
0.0
  0
SPLINE
  5
79
330
1F
100
AcDbEntity
  8
Miura_Table_9580-01_2D
100
AcDbSpline
210
0.0
220
0.0
230
1.0
 70
     8
 71
     3
 72
    15
 73
    11
 74
     0
 42
0.0000000001
 43
0.0000000001
 40
-44.15779849543482
 40
-44.15779849543482
 40
-44.15779849543482
 40
-44.15779849543482
 40
-41.3966023543671
 40
-38.64978450157577
 40
-32.87822943471981
 40
-21.59382453005134
 40
-10.5998510122942
 40
-5.271537957085918
 40
-2.763377139235543
 40
0.0
 40
0.0
 40
0.0
 40
0.0
 10
25.20362777791796
 20
1218.904085324745
 30
0.0
 10
25.24375007955949
 20
1217.984599969852
 30
0.0
 10
25.35054434327229
 20
1216.151372664977
 30
0.0
 10
25.6994860446075
 20
1212.407288932834
 30
0.0
 10
26.61406250246909
 20
1205.866909600545
 30
0.0
 10
28.75319259720981
 20
1196.746791622182
 30
0.0
 10
31.96685062383311
 20
1188.103494639101
 30
0.0
 10
34.73587125751964
 20
1182.465893037582
 30
0.0
 10
36.45798848095455
 20
1179.380260728276
 30
0.0
 10
37.37546475081125
 20
1177.881020366183
 30
0.0
 10
37.86016073208702
 20
1177.097893676258
 30
0.0
  0
SPLINE
  5
7A
330
1F
100
AcDbEntity
  8
Miura_Table_9580-01_2D
100
AcDbSpline
210
0.0
220
0.0
230
1.0
 70
    12
 71
     2
 72
     6
 73
     3
 74
     0
 42
0.0000000001
 43
0.0000000001
 40
0.0
 40
0.0
 40
0.0
 40
0.0038962172915295
 40
0.0038962172915295
 40
0.0038962172915295
 10
25.2034792409031
 20
1218.907978756885
 30
0.0
 41
1.0
 10
25.20356513119451
 20
1218.906032540705
 30
0.0
 41
0.9999999970873399
 10
25.20362777791796
 20
1218.904085324745
 30
0.0
 41
1.0
  0
SPLINE
  5
7B
330
1F
100
AcDbEntity
  8
Miura_Table_9580-01_2D
100
AcDbSpline
210
0.0
220
0.0
230
1.0
 70
    12
 71
     2
 72
     6
 73
     3
 74
     0
 42
0.0000000001
 43
0.0000000001
 40
-0.0174069048050353
 40
-0.0174069048050353
 40
-0.0174069048050353
 40
0.0
 40
0.0
 40
0.0
 10
25.20272946871863
 20
1218.925369508339
 30
0.0
 41
1.0
 10
25.2031044716347
 20
1218.916674137558
 30
0.0
 41
0.9999999593102533
 10
25.2034792409031
 20
1218.907978756885
 30
0.0
 41
1.0
  0
SPLINE
  5
7C
330
1F
100
AcDbEntity
  8
Miura_Table_9580-01_2D
100
AcDbSpline
210
0.0
220
0.0
230
1.0
 70
    12
 71
     2
 72
     6
 73
     3
 74
     0
 42
0.0000000001
 43
0.0000000001
 40
0.0
 40
0.0
 40
0.0
 40
0.8650636015552053
 40
0.8650636015552053
 40
0.8650636015552053
 10
25.16407962017819
 20
1219.789567797976
 30
0.0
 41
1.0
 10
25.18202790678283
 20
1219.357407085303
 30
0.0
 41
0.9999949169942275
 10
25.20272946871865
 20
1218.925369508339
 30
0.0
 41
0.9999999999998899
  0
SPLINE
  5
7D
330
1F
100
AcDbEntity
  8
Miura_Table_9580-01_2D
100
AcDbSpline
210
0.0
220
0.0
230
1.0
 70
    12
 71
     2
 72
     6
 73
     3
 74
     0
 42
0.0000000001
 43
0.0000000001
 40
0.0
 40
0.0
 40
0.0
 40
0.3764503268402766
 40
0.3764503268402766
 40
0.3764503268402766
 10
25.15021489777699
 20
1220.165762530346
 30
0.0
 41
1.0
 10
25.15682183983748
 20
1219.977653170782
 30
0.0
 41
0.9999985034549737
 10
25.16407962017819
 20
1219.789567797976
 30
0.0
 41
1.0
  0
SPLINE
  5
7E
330
1F
100
AcDbEntity
  8
Miura_Table_9580-01_2D
100
AcDbSpline
210
0.0
220
0.0
230
1.0
 70
     8
 71
     5
 72
    12
 73
     6
 74
     0
 42
0.0000000001
 43
0.0000000001
 40
0.0
 40
0.0
 40
0.0
 40
0.0
 40
0.0
 40
0.0
 40
1.0
 40
1.0
 40
1.0
 40
1.0
 40
1.0
 40
1.0
 10
25.12408509158285
 20
1220.91858890005
 30
0.0
 10
25.12980927869193
 20
1220.768041744415
 30
0.0
 10
25.13530421638551
 20
1220.617485872132
 30
0.0
 10
25.13989909260635
 20
1220.466897884826
 30
0.0
 10
25.14492668838828
 20
1220.316325630836
 30
0.0
 10
25.15021489777699
 20
1220.165762530346
 30
0.0
  0
SPLINE
  5
7F
330
1F
100
AcDbEntity
  8
Miura_Table_9580-01_2D
100
AcDbSpline
210
0.0
220
0.0
230
1.0
 70
     8
 71
     3
 72
    15
 73
    11
 74
     0
 42
0.0000000001
 43
0.0000000001
 40
-3.919177605417826
 40
-3.919177605417826
 40
-3.919177605417826
 40
-3.919177605417826
 40
-3.588551735127004
 40
-3.247808135525447
 40
-2.899529664530077
 40
-2.520270126564129
 40
-2.107271700881924
 40
-1.592389293923229
 40
-0.9361505302432512
 40
0.0
 40
0.0
 40
0.0
 40
0.0
 10
23.85251904312098
 20
1224.329459739994
 30
0.0
 10
23.9603987140399
 20
1224.306884209457
 30
0.0
 10
24.17303189403536
 20
1224.230334951118
 30
0.0
 10
24.45151863415684
 20
1224.029907978345
 30
0.0
 10
24.67743201967186
 20
1223.750909899874
 30
0.0
 10
24.84124707173759
 20
1223.405447879837
 30
0.0
 10
24.95529774303212
 20
1222.983842208062
 30
0.0
 10
25.03380939106681
 20
1222.461161111656
 30
0.0
 10
25.0900519474162
 20
1221.760793001003
 30
0.0
 10
25.1122289261284
 20
1221.230408194559
 30
0.0
 10
25.12408509158285
 20
1220.91858890005
 30
0.0
  0
LINE
  5
80
330
1F
100
AcDbEntity
  8
Miura_Table_9580-01_2D
100
AcDbLine
 10
21.65077798628316
 20
1224.329367396001
 30
0.0
 11
23.85251904312098
 21
1224.329459739994
 31
0.0
  0
SPLINE
  5
81
330
1F
100
AcDbEntity
  8
Miura_Table_9580-01_2D
100
AcDbSpline
210
0.0
220
0.0
230
1.0
 70
     8
 71
     3
 72
    18
 73
    14
 74
     0
 42
0.0000000001
 43
0.0000000001
 40
0.0
 40
0.0
 40
0.0
 40
0.0
 40
1.285072805565842
 40
2.530514856758515
 40
3.713958932632885
 40
4.870777299577194
 40
5.506991273313297
 40
5.827549416049516
 40
6.129926738348679
 40
6.413782533532999
 40
6.716881895257425
 40
7.387935346890758
 40
11.35744832993483
 40
11.35744832993483
 40
11.35744832993483
 40
11.35744832993483
 10
12.56031880717454
 20
1220.165477035191
 30
0.0
 10
12.62109984665948
 20
1220.589453853665
 30
0.0
 10
12.8329825159717
 20
1221.41151787308
 30
0.0
 10
13.40865789438611
 20
1222.516847367828
 30
0.0
 10
14.20212283577074
 20
1223.423168584514
 30
0.0
 10
15.03774570382938
 20
1223.976642477764
 30
0.0
 10
15.70410464288124
 20
1224.215490279126
 30
0.0
 10
16.11579280410841
 20
1224.298982462753
 30
0.0
 10
16.41696178006167
 20
1224.330115343881
 30
0.0
 10
16.71356041298349
 20
1224.329782407801
 30
0.0
 10
17.13285176673343
 20
1224.329212954119
 30
0.0
 10
18.78076677639546
 20
1224.329561420393
 30
0.0
 10
20.32759784963126
 20
1224.329256404363
 30
0.0
 10
21.65077798628316
 20
1224.329367396001
 30
0.0
  0
SPLINE
  5
82
330
1F
100
AcDbEntity
  8
Miura_Table_9580-01_2D
100
AcDbSpline
210
0.0
220
0.0
230
1.0
 70
    12
 71
     3
 72
    10
 73
     6
 74
     0
 42
0.0000000001
 43
0.0000000001
 40
0.0049548029583888
 40
0.0049548029583888
 40
0.0049548029583888
 40
0.0049548029583888
 40
0.7080503722075561
 40
0.7080503722075561
 40
1.411401651021521
 40
1.411401651021521
 40
1.411401651021521
 40
1.411401651021521
 10
11.69755058566897
 20
1219.329367301891
 30
0.0
 41
1.0
 10
11.90698359610541
 20
1219.329361933901
 30
0.0
 41
1.0
 10
12.10738548530297
 20
1219.413085391775
 30
0.0
 41
1.0
 10
12.42277287031537
 20
1219.719630680601
 30
0.0
 41
1.0
 10
12.52672492147757
 20
1219.931615297221
 30
0.0
 41
1.0
 10
12.56031880717454
 20
1220.165477035191
 30
0.0
 41
1.0
  0
SPLINE
  5
83
330
1F
100
AcDbEntity
  8
Miura_Table_9580-01_2D
100
AcDbSpline
210
0.0
220
0.0
230
1.0
 70
    12
 71
     2
 72
     6
 73
     3
 74
     0
 42
0.0000000001
 43
0.0000000001
 40
-11.69797561871451
 40
-11.69797561871451
 40
-11.69797561871451
 40
0.0
 40
0.0
 40
0.0
 10
-0.0002123606354969
 20
1219.329367295785
 30
0.0
 41
1.0
 10
5.848669112516281
 20
1219.329367268882
 30
0.0
 41
1.0
 10
11.69755058566897
 20
1219.329367301891
 30
0.0
 41
1.0
  0
SPLINE
  5
84
330
1F
100
AcDbEntity
  8
Miura_Table_9580-01_2D
100
AcDbSpline
210
0.0
220
0.0
230
1.0
 70
    24
 71
     2
 72
     6
 73
     3
 74
     0
 42
0.0000000001
 43
0.0000000001
 40
0.0
 40
0.0
 40
0.0
 40
286.5590223823228
 40
286.5590223823228
 40
286.5590223823228
 10
-25.13000084797842
 20
851.6244482905742
 30
0.0
 10
-25.13000084797842
 20
994.9039594817355
 30
0.0
 10
-25.13000084797842
 20
1138.183470672897
 30
0.0
  0
LINE
  5
85
330
1F
100
AcDbEntity
  8
Miura_Table_9580-01_2D
100
AcDbLine
 10
25.13000147152797
 20
851.6244482905742
 30
0.0
 11
-25.13000084797842
 21
851.6244482905742
 31
0.0
  0
SPLINE
  5
86
330
1F
100
AcDbEntity
  8
Miura_Table_9580-01_2D
100
AcDbSpline
210
0.0
220
0.0
230
1.0
 70
    24
 71
     2
 72
     6
 73
     3
 74
     0
 42
0.0000000001
 43
0.0000000001
 40
0.0
 40
0.0
 40
0.0
 40
286.5590223823231
 40
286.5590223823231
 40
286.5590223823231
 10
25.13000147152797
 20
1138.183470672897
 30
0.0
 10
25.13000147152797
 20
994.9039594817357
 30
0.0
 10
25.13000147152797
 20
851.6244482905742
 30
0.0
  0
SPLINE
  5
87
330
1F
100
AcDbEntity
  8
Miura_Table_9580-01_2D
100
AcDbSpline
210
0.0
220
0.0
230
1.0
 70
     8
 71
     3
 72
    12
 73
     8
 74
     0
 42
0.0000000001
 43
0.0000000001
 40
0.0
 40
0.0
 40
0.0
 40
0.0
 40
0.0709674213477591
 40
0.1335862693837825
 40
0.2813937667596485
 40
0.4525062216997117
 40
0.627356896276153
 40
0.627356896276153
 40
0.627356896276153
 40
0.627356896276153
 10
-25.00001845605312
 20
851.2708948225733
 30
0.0
 10
-25.00012779214468
 20
851.2945136175002
 30
0.0
 10
-24.99914452395752
 20
851.3393694475307
 30
0.0
 10
-24.96723534956528
 20
851.4291493176937
 30
0.0
 10
-24.87928072717569
 20
851.5246014610385
 30
0.0
 10
-24.73241757828601
 20
851.6033096920902
 30
0.0
 10
-24.61702595617409
 20
851.6222419159377
 30
0.0
 10
-24.55885293653047
 20
851.6237225352844
 30
0.0
  0
SPLINE
  5
88
330
1F
100
AcDbEntity
  8
Miura_Table_9580-01_2D
100
AcDbSpline
210
0.0
220
0.0
230
1.0
 70
    24
 71
     2
 72
     6
 73
     3
 74
     0
 42
0.0000000001
 43
0.0000000001
 40
0.0
 40
0.0
 40
0.0
 40
0.3964465280207605
 40
0.3964465280207605
 40
0.3964465280207605
 10
-24.99999168985506
 20
850.8744482947299
 30
0.0
 10
-25.00000507295409
 20
851.0726715586516
 30
0.0
 10
-25.00001845605312
 20
851.2708948225733
 30
0.0
  0
SPLINE
  5
89
330
1F
100
AcDbEntity
  8
Miura_Table_9580-01_2D
100
AcDbSpline
210
0.0
220
0.0
230
1.0
 70
     8
 71
     3
 72
    17
 73
    13
 74
     0
 42
0.0000000001
 43
0.0000000001
 40
0.0
 40
0.0
 40
0.0
 40
0.0
 40
0.1433371388019954
 40
0.2741217048581911
 40
0.5698915548391688
 40
0.8911637673394632
 40
1.191151497005835
 40
1.428512647803872
 40
1.628463248151064
 40
1.79281401023468
 40
1.87084582755943
 40
1.966221106772802
 40
1.966221106772802
 40
1.966221106772802
 40
1.966221106772802
 10
-23.83922918809459
 20
849.3740891206963
 30
0.0
 10
-23.88035561909511
 20
849.3997037558817
 30
0.0
 10
-23.95751269938956
 20
849.4487070903352
 30
0.0
 10
-24.11165639704542
 20
849.5598812802635
 30
0.0
 10
-24.30244871973538
 20
849.7206748800255
 30
0.0
 10
-24.52043363332906
 20
849.9352431612912
 30
0.0
 10
-24.7078907693258
 20
850.1519350967297
 30
0.0
 10
-24.8498503908677
 20
850.3529330374107
 30
0.0
 10
-24.94381514257749
 20
850.530836724813
 30
0.0
 10
-24.98705086623159
 20
850.6726691320781
 30
0.0
 10
-24.99963398884303
 20
850.784854246796
 30
0.0
 10
-25.00009268066061
 20
850.8426314257957
 30
0.0
 10
-24.99999168985506
 20
850.8744482947299
 30
0.0
  0
SPLINE
  5
8A
330
1F
100
AcDbEntity
  8
Miura_Table_9580-01_2D
100
AcDbSpline
210
0.0
220
0.0
230
1.0
 70
     8
 71
     3
 72
    24
 73
    20
 74
     0
 42
0.0000000001
 43
0.0000000001
 40
0.0
 40
0.0
 40
0.0
 40
0.0
 40
0.0020036009973828
 40
0.0022547111946161
 40
0.0025058213907338
 40
0.0056257993892326
 40
0.0112405324588038
 40
0.0196887687594485
 40
0.0391810618505631
 40
0.0782064054519545
 40
0.1883614775428985
 40
0.3719392572588333
 40
0.7758219388728826
 40
1.546888493387028
 40
3.125770128814666
 40
6.302017912357493
 40
12.52633999402473
 40
18.76876323823666
 40
25.12637023077661
 40
25.12637023077661
 40
25.12637023077661
 40
25.12637023077661
 10
0.0002385766783748
 20
842.5371986731076
 30
0.0
 10
-0.0004313882618687
 20
842.5371986706956
 30
0.0
 10
-0.0013814655403719
 20
842.5371986985368
 30
0.0
 10
-0.0015540261447411
 20
842.5371986079141
 30
0.0
 10
-0.0017514286401008
 20
842.5371987319578
 30
0.0
 10
-0.0056047590933401
 20
842.5371988975259
 30
0.0
 10
-0.0107352989271119
 20
842.5371997346277
 30
0.0
 10
-0.0223819561779335
 20
842.5372034606997
 30
0.0
 10
-0.0441539371731876
 20
842.5372174017317
 30
0.0
 10
-0.1008786728361981
 20
842.5372898750551
 30
0.0
 10
-0.2114962550240405
 20
842.5376175867301
 30
0.0
 10
-0.4441854836895898
 20
842.5390689265245
 30
0.0
 10
-0.8969076456560385
 20
842.5448690824988
 30
0.0
 10
-1.814613149635998
 20
842.5686609155094
 30
0.0
 10
-3.65440315788238
 20
842.6646720935665
 30
0.0
 10
-7.296441314317245
 20
843.0471955652632
 30
0.0
 10
-12.40936913035695
 20
844.1322979530156
 30
0.0
 10
-18.32235610084082
 20
846.2768588037865
 30
0.0
 10
-22.04132580201532
 20
848.2510374416257
 30
0.0
 10
-23.83922918809459
 20
849.3740891206963
 30
0.0
  0
SPLINE
  5
8B
330
1F
100
AcDbEntity
  8
Miura_Table_9580-01_2D
100
AcDbSpline
210
0.0
220
0.0
230
1.0
 70
     8
 71
     3
 72
    25
 73
    21
 74
     0
 42
0.0000000001
 43
0.0000000001
 40
0.0
 40
0.0
 40
0.0
 40
0.0
 40
3.199464847565258
 40
6.339105644558495
 40
12.50811986083845
 40
18.76914410145589
 40
21.92709824290088
 40
23.5426726790446
 40
24.35047809908063
 40
24.73600031715062
 40
24.93791509714551
 40
25.02970318784148
 40
25.08478241549296
 40
25.10542804074601
 40
25.11450266261522
 40
25.12044633183926
 40
25.1237624889977
 40
25.12411320300106
 40
25.12426471033862
 40
25.12576885809665
 40
25.12576885809665
 40
25.12576885809665
 40
25.12576885809665
 10
23.83903595549872
 20
849.3739663636494
 30
0.0
 10
22.93409061299097
 20
848.8085679212808
 30
0.0
 10
21.10216963154652
 20
847.752900760475
 30
0.0
 10
17.35060767958656
 20
845.9279688150335
 30
0.0
 10
12.46235462658386
 20
844.1484801555401
 30
0.0
 10
7.369079324375879
 20
843.0586313221075
 30
0.0
 10
3.709330417430455
 20
842.6691412003566
 30
0.0
 10
1.851280898302311
 20
842.5697727259827
 30
0.0
 10
0.9152639214016647
 20
842.5452160299509
 30
0.0
 10
0.4502290392419939
 20
842.5391218116068
 30
0.0
 10
0.2238244808968277
 20
842.537681630405
 30
0.0
 10
0.107566907044192
 20
842.5373045210989
 30
0.0
 10
0.0517292836730023
 20
842.5372242442305
 30
0.0
 10
0.0234633573991134
 20
842.5372034916867
 30
0.0
 10
0.0115754177404499
 20
842.5372000816202
 30
0.0
 10
0.0055053786809269
 20
842.537198824804
 30
0.0
 10
0.0021275729604797
 20
842.5371987654622
 30
0.0
 10
0.0015005478116921
 20
842.5371986054171
 30
0.0
 10
0.001490011063642
 20
842.537198690014
 30
0.0
 10
0.0007269131547121
 20
842.5371986706378
 30
0.0
 10
0.0002385766783748
 20
842.5371986731076
 30
0.0
  0
SPLINE
  5
8C
330
1F
100
AcDbEntity
  8
Miura_Table_9580-01_2D
100
AcDbSpline
210
0.0
220
0.0
230
1.0
 70
    24
 71
     2
 72
     6
 73
     3
 74
     0
 42
0.0000000001
 43
0.0000000001
 40
0.0
 40
0.0
 40
0.0
 40
0.0002289742124082
 40
0.0002289742124082
 40
0.0002289742124082
 10
23.83975727332562
 20
849.3744187268443
 30
0.0
 10
23.83939661441217
 20
849.3741925452468
 30
0.0
 10
23.83903595549872
 20
849.3739663636494
 30
0.0
  0
SPLINE
  5
8D
330
1F
100
AcDbEntity
  8
Miura_Table_9580-01_2D
100
AcDbSpline
210
0.0
220
0.0
230
1.0
 70
     8
 71
     3
 72
    17
 73
    13
 74
     0
 42
0.0000000001
 43
0.0000000001
 40
0.0
 40
0.0
 40
0.0
 40
0.0
 40
0.096206427153708
 40
0.1738289297860724
 40
0.3373064891875309
 40
0.5367070411388807
 40
0.7755987407383814
 40
1.076140845210542
 40
1.39684904123019
 40
1.692620935227463
 40
1.823404523224021
 40
1.966221085738925
 40
1.966221085738925
 40
1.966221085738925
 40
1.966221085738925
 10
24.99999231340461
 20
850.8744482947299
 30
0.0
 10
25.00007599933268
 20
850.842365669581
 30
0.0
 10
24.99963648657011
 20
850.784429984211
 30
0.0
 10
24.98693521240238
 20
850.6724232135356
 30
0.0
 10
24.94391938789976
 20
850.531166509497
 30
0.0
 10
24.85004070244212
 20
850.3531811762654
 30
0.0
 10
24.70778194457397
 20
850.1517583012577
 30
0.0
 10
24.51994455287512
 20
849.9347275756564
 30
0.0
 10
24.30192289182559
 20
849.7202000311264
 30
0.0
 10
24.11124786000618
 20
849.5595591190444
 30
0.0
 10
23.95722399971418
 20
849.448513851432
 30
0.0
 10
23.88020793376744
 20
849.3996138182303
 30
0.0
 10
23.83975727332562
 20
849.3744187268443
 30
0.0
  0
SPLINE
  5
8E
330
1F
100
AcDbEntity
  8
Miura_Table_9580-01_2D
100
AcDbSpline
210
0.0
220
0.0
230
1.0
 70
    24
 71
     2
 72
     6
 73
     3
 74
     0
 42
0.0000000001
 43
0.0000000001
 40
0.0
 40
0.0
 40
0.0
 40
0.3964465280207605
 40
0.3964465280207605
 40
0.3964465280207605
 10
25.00001907960267
 20
851.2708948225733
 30
0.0
 10
25.00000569650364
 20
851.0726715586516
 30
0.0
 10
24.99999231340461
 20
850.8744482947299
 30
0.0
  0
SPLINE
  5
8F
330
1F
100
AcDbEntity
  8
Miura_Table_9580-01_2D
100
AcDbSpline
210
0.0
220
0.0
230
1.0
 70
     8
 71
     3
 72
    13
 73
     9
 74
     0
 42
0.0000000001
 43
0.0000000001
 40
0.0
 40
0.0
 40
0.0
 40
0.0
 40
0.0902185093720015
 40
0.1761896831588625
 40
0.3455633168783852
 40
0.4948657949572023
 40
0.556563259372795
 40
0.627356624861584
 40
0.627356624861584
 40
0.627356624861584
 40
0.627356624861584
 10
24.55885381686948
 20
851.6237284818802
 30
0.0
 10
24.58893150645325
 20
851.6226717382186
 30
0.0
 10
24.64749837356156
 20
851.6175082288729
 30
0.0
 10
24.75960680516618
 20
851.5885903889815
 30
0.0
 10
24.87975929685216
 20
851.5243594313102
 30
0.0
 10
24.96742215826906
 20
851.4288767882095
 30
0.0
 10
24.99927343375656
 20
851.3389469481327
 30
0.0
 10
25.00003015807578
 20
851.2944566607601
 30
0.0
 10
25.00001907960267
 20
851.2708948225733
 30
0.0
  0
SPLINE
  5
90
330
1F
100
AcDbEntity
  8
Miura_Table_9580-01_2D
100
AcDbSpline
210
0.0
220
0.0
230
1.0
 70
     8
 71
     3
 72
    12
 73
     8
 74
     0
 42
0.0000000001
 43
0.0000000001
 40
0.0
 40
0.0
 40
0.0
 40
0.0
 40
0.0890023797843848
 40
0.1797960093845599
 40
0.411193526615116
 40
0.6556287843923315
 40
0.8529811660911646
 40
0.8529811660911646
 40
0.8529811660911646
 40
0.8529811660911646
 10
318.0659897584792
 20
851.271041110672
 30
0.0
 10
318.0466777964884
 20
851.2937689150164
 30
0.0
 10
318.005884119636
 20
851.3378969762908
 30
0.0
 10
317.8972074777221
 20
851.4221494914831
 30
0.0
 10
317.7306862971664
 20
851.5124066749048
 30
0.0
 10
317.5211796488129
 20
851.5942068849635
 30
0.0
 10
317.3756606648822
 20
851.6220557388623
 30
0.0
 10
317.3097707814886
 20
851.623839563308
 30
0.0
  0
SPLINE
  5
91
330
1F
100
AcDbEntity
  8
Miura_Table_9580-01_2D
100
AcDbSpline
210
0.0
220
0.0
230
1.0
 70
    24
 71
     2
 72
     6
 73
     3
 74
     0
 42
0.0000000001
 43
0.0000000001
 40
0.0
 40
0.0
 40
0.0
 40
0.5244495011189884
 40
0.5244495011189884
 40
0.5244495011189884
 10
318.4095026644463
 20
850.8743850731267
 30
0.0
 10
318.2377462114628
 20
851.0727130918993
 30
0.0
 10
318.0659897584792
 20
851.271041110672
 30
0.0
  0
SPLINE
  5
92
330
1F
100
AcDbEntity
  8
Miura_Table_9580-01_2D
100
AcDbSpline
210
0.0
220
0.0
230
1.0
 70
     8
 71
     3
 72
    16
 73
    12
 74
     0
 42
0.0000000001
 43
0.0000000001
 40
0.0
 40
0.0
 40
0.0
 40
0.0
 40
0.1450445684408275
 40
0.2674563255525638
 40
0.5165020686838145
 40
0.7647651081847263
 40
0.9971024939488223
 40
1.19489142016583
 40
1.37708050099132
 40
1.556352254818322
 40
1.789706299665248
 40
1.789706299665248
 40
1.789706299665248
 40
1.789706299665248
 10
318.04861776915
 20
849.374386432099
 30
0.0
 10
318.088063076988
 20
849.4025280716468
 30
0.0
 10
318.1602076122417
 20
849.454987043841
 30
0.0
 10
318.290808885401
 20
849.5674341135617
 30
0.0
 10
318.429198844965
 20
849.7217874436236
 30
0.0
 10
318.5590590771708
 20
849.9285474984509
 30
0.0
 10
318.6411985212089
 20
850.1405958798106
 30
0.0
 10
318.6681831307806
 20
850.3446806877004
 30
0.0
 10
318.63881432978
 20
850.5310012084364
 30
0.0
 10
318.5502871230301
 20
850.710549477258
 30
0.0
 10
318.4605355202702
 20
850.8156717997441
 30
0.0
 10
318.4095026644463
 20
850.8743850731267
 30
0.0
  0
SPLINE
  5
93
330
1F
100
AcDbEntity
  8
Miura_Table_9580-01_2D
100
AcDbSpline
210
0.0
220
0.0
230
1.0
 70
     8
 71
     3
 72
    12
 73
     8
 74
     0
 42
0.0000000001
 43
0.0000000001
 40
0.0
 40
0.0
 40
0.0
 40
0.0
 40
2.765242495116512
 40
5.467131183712467
 40
11.12386283924205
 40
16.6939552205985
 40
22.3034199774177
 40
22.3034199774177
 40
22.3034199774177
 40
22.3034199774177
 10
297.1831102336737
 20
842.5388541148499
 30
0.0
 10
298.1048220220073
 20
842.5476437623937
 30
0.0
 10
299.9264057619821
 20
842.6354532600336
 30
0.0
 10
303.6088256392895
 20
843.0909446230079
 30
0.0
 10
308.134354429043
 20
844.1902323239316
 30
0.0
 10
313.3336567822416
 20
846.346036099036
 30
0.0
 10
316.5280540771946
 20
848.2861135165698
 30
0.0
 10
318.04861776915
 20
849.374386432099
 30
0.0
  0
SPLINE
  5
94
330
1F
100
AcDbEntity
  8
Miura_Table_9580-01_2D
100
AcDbSpline
210
0.0
220
0.0
230
1.0
 70
     8
 71
     5
 72
    12
 73
     6
 74
     0
 42
0.0000000001
 43
0.0000000001
 40
-1.0
 40
-1.0
 40
-1.0
 40
-1.0
 40
-1.0
 40
-1.0
 40
0.0
 40
0.0
 40
0.0
 40
0.0
 40
0.0
 40
0.0
 10
296.8384569398631
 20
842.5371986722952
 30
0.0
 10
296.9073883934934
 20
842.5372047899228
 30
0.0
 10
296.9763198324217
 20
842.5373765618114
 30
0.0
 10
297.0452520108047
 20
842.537705506341
 30
0.0
 10
297.1141819138547
 20
842.5381967991415
 30
0.0
 10
297.1831102336737
 20
842.5388541148499
 30
0.0
  0
SPLINE
  5
95
330
1F
100
AcDbEntity
  8
Miura_Table_9580-01_2D
100
AcDbSpline
210
0.0
220
0.0
230
1.0
 70
     8
 71
     3
 72
    11
 73
     7
 74
     0
 42
0.0000000001
 43
0.0000000001
 40
0.0
 40
0.0
 40
0.0
 40
0.0
 40
2.849025153143939
 40
5.681848556468799
 40
11.31563454753918
 40
22.64754464670963
 40
22.64754464670963
 40
22.64754464670963
 40
22.64754464670963
 10
275.6286844388032
 20
849.3743083487294
 30
0.0
 10
276.4010126777275
 20
848.8214013202715
 30
0.0
 10
277.9836326676768
 20
847.7780901727609
 30
0.0
 10
281.2853606671097
 20
845.9492357552716
 30
0.0
 10
287.4070022236119
 20
843.4301122276278
 30
0.0
 10
293.0610010935688
 20
842.5368634252169
 30
0.0
 10
296.8384569398631
 20
842.5371986722952
 30
0.0
  0
SPLINE
  5
96
330
1F
100
AcDbEntity
  8
Miura_Table_9580-01_2D
100
AcDbSpline
210
0.0
220
0.0
230
1.0
 70
     8
 71
     3
 72
    12
 73
     8
 74
     0
 42
0.0000000001
 43
0.0000000001
 40
0.0
 40
0.0
 40
0.0
 40
0.0
 40
0.215147148445352
 40
0.4344126759933203
 40
1.014845999299492
 40
1.738325432821743
 40
2.240259627195612
 40
2.240259627195612
 40
2.240259627195612
 40
2.240259627195612
 10
273.9686630757224
 20
850.8741923257054
 30
0.0
 10
274.0157139333105
 20
850.8196308575349
 30
0.0
 10
274.1115307770806
 20
850.7110020535155
 30
0.0
 10
274.3478628660869
 20
850.4688427788896
 30
0.0
 10
274.7198684238383
 20
850.1230925557749
 30
0.0
 10
275.1736700106712
 20
849.7275872788622
 30
0.0
 10
275.4918819922013
 20
849.4711857528204
 30
0.0
 10
275.6286844388032
 20
849.3743083487294
 30
0.0
  0
SPLINE
  5
97
330
1F
100
AcDbEntity
  8
Miura_Table_9580-01_2D
100
AcDbSpline
210
0.0
220
0.0
230
1.0
 70
    24
 71
     2
 72
     6
 73
     3
 74
     0
 42
0.0000000001
 43
0.0000000001
 40
0.0
 40
0.0
 40
0.0
 40
0.5244136134753632
 40
0.5244136134753632
 40
0.5244136134753632
 10
273.6251202070398
 20
851.2708812734087
 30
0.0
 10
273.7968916413811
 20
851.072536799557
 30
0.0
 10
273.9686630757224
 20
850.8741923257054
 30
0.0
  0
SPLINE
  5
98
330
1F
100
AcDbEntity
  8
Miura_Table_9580-01_2D
100
AcDbSpline
210
0.0
220
0.0
230
1.0
 70
     8
 71
     3
 72
    13
 73
     9
 74
     0
 42
0.0000000001
 43
0.0000000001
 40
0.0
 40
0.0
 40
0.0
 40
0.0
 40
0.0842084935809858
 40
0.1523207872208179
 40
0.275918593398183
 40
0.3976132335562294
 40
0.4611173083935368
 40
0.5436834943217632
 40
0.5436834943217632
 40
0.5436834943217632
 40
0.5436834943217632
 10
273.7940424734034
 20
851.6243536608041
 30
0.0
 10
273.7660711242597
 20
851.6243217607406
 30
0.0
 10
273.714907698286
 20
851.6209910364704
 30
0.0
 10
273.6262767310045
 20
851.5958159927485
 30
0.0
 10
273.5442235144501
 20
851.520241490107
 30
0.0
 10
273.5362818323292
 20
851.4102712369703
 30
0.0
 10
273.5757172844878
 20
851.3291290095593
 30
0.0
 10
273.6068680254484
 20
851.2915178657614
 30
0.0
 10
273.6251202070398
 20
851.2708812734087
 30
0.0
  0
POLYLINE
  5
99
330
1F
100
AcDbEntity
  8
Miura_Table_9580-01_2D
100
AcDb2dPolyline
 66
     1
 10
0.0
 20
0.0
 30
0.0
  0
VERTEX
  5
9A
330
99
100
AcDbEntity
  8
Miura_Table_9580-01_2D
100
AcDbVertex
100
AcDb2dVertex
 10
0.000000311774774
 20
1218.329368787106
 30
0.0
  0
VERTEX
  5
9B
330
99
100
AcDbEntity
  8
Miura_Table_9580-01_2D
100
AcDbVertex
100
AcDb2dVertex
 10
-0.0004250330457678
 20
1155.779089624509
 30
0.0
  0
SEQEND
  5
9C
330
99
100
AcDbEntity
  8
Miura_Table_9580-01_2D
  0
SPLINE
  5
9D
330
1F
100
AcDbEntity
  8
Miura_Table_9580-01_2D
100
AcDbSpline
210
0.0
220
0.0
230
1.0
 70
    12
 71
     2
 72
     6
 73
     3
 74
     0
 42
0.0000000001
 43
0.0000000001
 40
0.0
 40
0.0
 40
0.0
 40
0.0456162757198297
 40
0.0456162757198297
 40
0.0456162757198297
 10
-0.7753214648255478
 20
1154.804639004791
 30
0.0
 41
1.0
 10
-0.7975501022608528
 20
1154.799512629457
 30
0.0
 41
0.9997392900035
 10
-0.8199896032056229
 20
1154.795406433699
 30
0.0
 41
1.0
  0
SPLINE
  5
9E
330
1F
100
AcDbEntity
  8
Miura_Table_9580-01_2D
100
AcDbSpline
210
0.0
220
0.0
230
1.0
 70
     8
 71
     3
 72
    13
 73
     9
 74
     0
 42
0.0000000001
 43
0.0000000001
 40
0.0
 40
0.0
 40
0.0
 40
0.0
 40
1.019225064702818
 40
2.012580360965314
 40
3.947692328443181
 40
4.933986289060289
 40
5.854459583978036
 40
7.77721457745443
 40
7.77721457745443
 40
7.77721457745443
 40
7.77721457745443
 10
-7.422420361133855
 20
1152.868892753571
 30
0.0
 10
-7.126279030012493
 20
1152.702428786019
 30
0.0
 10
-6.531881317252565
 20
1152.390620032393
 30
0.0
 10
-5.331226851916663
 20
1151.850821698797
 30
0.0
 10
-4.094687745448947
 20
1151.425870519008
 30
0.0
 10
-2.847898928927871
 20
1151.130110851505
 30
0.0
 10
-1.588632730843538
 20
1150.917202634032
 30
0.0
 10
-0.6409022308007577
 20
1150.852739030307
 30
0.0
 10
0.000000311774774
 20
1150.852203085073
 30
0.0
  0
SPLINE
  5
9F
330
1F
100
AcDbEntity
  8
Miura_Table_9580-01_2D
100
AcDbSpline
210
0.0
220
0.0
230
1.0
 70
    12
 71
     2
 72
     6
 73
     3
 74
     0
 42
0.0000000001
 43
0.0000000001
 40
0.0
 40
0.0
 40
0.0
 40
0.5308753252867442
 40
0.5308753252867442
 40
0.5308753252867442
 10
-7.886179102791185
 20
1153.127262067672
 30
0.0
 41
1.0
 10
-7.653744063973154
 20
1152.999074804173
 30
0.0
 41
0.9999907493369194
 10
-7.422420361133855
 20
1152.868892753571
 30
0.0
 41
1.0
  0
SPLINE
  5
A0
330
1F
100
AcDbEntity
  8
Miura_Table_9580-01_2D
100
AcDbSpline
210
0.0
220
0.0
230
1.0
 70
     8
 71
     3
 72
    13
 73
     9
 74
     0
 42
0.0000000001
 43
0.0000000001
 40
0.0
 40
0.0
 40
0.0
 40
0.0
 40
0.9782337425002418
 40
1.922754993476621
 40
2.84322828839396
 40
3.829522249011025
 40
5.764634216489107
 40
7.777214577453913
 40
7.777214577453913
 40
7.777214577453913
 40
7.777214577453913
 10
0.000000311774774
 20
1150.852203085073
 30
0.0
 10
0.3260856012229754
 20
1150.852355941542
 30
0.0
 10
0.9669617714935059
 20
1150.875036520221
 30
0.0
 10
1.910313667173786
 20
1150.971530947332
 30
0.0
 10
2.847898933217029
 20
1151.13012789547
 30
0.0
 10
4.094684466070238
 20
1151.425875831035
 30
0.0
 10
5.653178666751036
 20
1151.961420437495
 30
0.0
 10
6.837687144806286
 20
1152.540068011042
 30
0.0
 10
7.422420984683403
 20
1152.868892753571
 30
0.0
  0
SPLINE
  5
A1
330
1F
100
AcDbEntity
  8
Miura_Table_9580-01_2D
100
AcDbSpline
210
0.0
220
0.0
230
1.0
 70
    12
 71
     2
 72
     6
 73
     3
 74
     0
 42
0.0000000001
 43
0.0000000001
 40
0.0
 40
0.0
 40
0.0
 40
0.5308753252869439
 40
0.5308753252869439
 40
0.5308753252869439
 10
7.422420984684313
 20
1152.868892753571
 30
0.0
 41
1.0
 10
7.653744687522831
 20
1152.999074804173
 30
0.0
 41
0.9999907493369284
 10
7.886179726341642
 20
1153.127262067672
 30
0.0
 41
1.0
  0
SPLINE
  5
A2
330
1F
100
AcDbEntity
  8
Miura_Table_9580-01_2D
100
AcDbSpline
210
0.0
220
0.0
230
1.0
 70
    12
 71
     2
 72
     6
 73
     3
 74
     0
 42
0.0000000001
 43
0.0000000001
 40
0.0
 40
0.0
 40
0.0
 40
1.53375019001792
 40
1.53375019001792
 40
1.53375019001792
 10
0.000000311774774
 20
1218.329368787106
 30
0.0
 41
1.0
 10
-0.0000398534440142
 20
1219.292958821671
 30
0.0
 41
0.7201170802944139
 10
-0.9629666716837262
 20
1219.328703737976
 30
0.0
 41
1.0
  0
SPLINE
  5
A3
330
1F
100
AcDbEntity
  8
Miura_Table_9580-01_2D
100
AcDbSpline
210
0.0
220
0.0
230
1.0
 70
    12
 71
     2
 72
     6
 73
     3
 74
     0
 42
0.0000000001
 43
0.0000000001
 40
0.0
 40
0.0
 40
0.0
 40
1.53375001570948
 40
1.53375001570948
 40
1.53375001570948
 10
0.9629671210222925
 20
1219.328703731706
 30
0.0
 41
1.0
 10
0.0000404772078336
 20
1219.292958653375
 30
0.0
 41
0.7201171409990421
 10
0.000000311774774
 20
1218.329368787106
 30
0.0
 41
1.0
  0
SPLINE
  5
A4
330
1F
100
AcDbEntity
  8
Miura_Table_9580-01_2D
100
AcDbSpline
210
0.0
220
0.0
230
1.0
 70
     8
 71
     3
 72
    13
 73
     9
 74
     0
 42
0.0000000001
 43
0.0000000001
 40
0.0
 40
0.0
 40
0.0
 40
0.0
 40
0.0759172290794612
 40
0.1358047706645862
 40
0.2547108411286943
 40
0.3727728321327626
 40
0.4326874844364469
 40
0.5009095124335416
 40
0.5009095124335416
 40
0.5009095124335416
 40
0.5009095124335416
 10
707.2750747108526
 20
851.2707486025822
 30
0.0
 10
707.2930214041357
 20
851.288539881863
 30
0.0
 10
707.3247420709963
 20
851.3212049671886
 30
0.0
 10
707.3663794761137
 20
851.3962404720837
 30
0.0
 10
707.3698640229982
 20
851.5004234811242
 30
0.0
 10
707.3082706103364
 20
851.5852890458616
 30
0.0
 10
707.2314327059953
 20
851.6182169948243
 30
0.0
 10
707.1888884088835
 20
851.6229935911697
 30
0.0
 10
707.1661117117605
 20
851.6238094385217
 30
0.0
  0
SPLINE
  5
A5
330
1F
100
AcDbEntity
  8
Miura_Table_9580-01_2D
100
AcDbSpline
210
0.0
220
0.0
230
1.0
 70
    12
 71
     3
 72
     8
 73
     4
 74
     0
 42
0.0000000001
 43
0.0000000001
 40
-0.2809667047186584
 40
-0.2809667047186584
 40
-0.2809667047186584
 40
-0.2809667047186584
 40
0.0
 40
0.0
 40
0.0
 40
0.0
 10
707.2740973571822
 20
851.2704229254487
 30
0.0
 41
1.0
 10
707.2747646470693
 20
851.2707455187312
 30
0.0
 41
1.0
 10
707.2750905110365
 20
851.2707485733811
 30
0.0
 41
1.0
 10
707.2750747108526
 20
851.2707486025822
 30
0.0
 41
1.0
  0
SPLINE
  5
A6
330
1F
100
AcDbEntity
  8
Miura_Table_9580-01_2D
100
AcDbSpline
210
0.0
220
0.0
230
1.0
 70
    24
 71
     2
 72
     6
 73
     3
 74
     0
 42
0.0000000001
 43
0.0000000001
 40
0.0
 40
0.0
 40
0.0
 40
0.559738903496817
 40
0.559738903496817
 40
0.559738903496817
 10
706.8786277480126
 20
850.8743020743852
 30
0.0
 10
707.0763625525974
 20
851.072362499917
 30
0.0
 10
707.2740973571822
 20
851.2704229254487
 30
0.0
  0
SPLINE
  5
A7
330
1F
100
AcDbEntity
  8
Miura_Table_9580-01_2D
100
AcDbSpline
210
0.0
220
0.0
230
1.0
 70
    12
 71
     3
 72
     8
 73
     4
 74
     0
 42
0.0000000001
 43
0.0000000001
 40
-0.2806769686640115
 40
-0.2806769686640115
 40
-0.2806769686640115
 40
-0.2806769686640115
 40
0.0
 40
0.0
 40
0.0
 40
0.0
 10
706.8779616252045
 20
850.8743017976385
 30
0.0
 41
1.0
 10
706.8784235208427
 20
850.8743020743536
 30
0.0
 41
1.0
 10
706.8786456086523
 20
850.8743020749155
 30
0.0
 41
1.0
 10
706.8786277480126
 20
850.8743020743852
 30
0.0
 41
1.0
  0
SPLINE
  5
A8
330
1F
100
AcDbEntity
  8
Miura_Table_9580-01_2D
100
AcDbSpline
210
0.0
220
0.0
230
1.0
 70
    24
 71
     2
 72
     6
 73
     3
 74
     0
 42
0.0000000001
 43
0.0000000001
 40
0.0
 40
0.0
 40
0.0
 40
0.0000154295494115
 40
0.0000154295494115
 40
0.0000154295494115
 10
706.8782891281439
 20
850.8739629377337
 30
0.0
 10
706.8781253766742
 20
850.8741323676861
 30
0.0
 10
706.8779616252045
 20
850.8743017976385
 30
0.0
  0
SPLINE
  5
A9
330
1F
100
AcDbEntity
  8
Miura_Table_9580-01_2D
100
AcDbSpline
210
0.0
220
0.0
230
1.0
 70
     8
 71
     3
 72
    12
 73
     8
 74
     0
 42
0.0000000001
 43
0.0000000001
 40
0.0
 40
0.0
 40
0.0
 40
0.0
 40
0.198582148184335
 40
0.4558823293423835
 40
1.173126657775418
 40
1.79495840075012
 40
2.266661781302044
 40
2.266661781302044
 40
2.266661781302044
 40
2.266661781302044
 10
705.1791149315909
 20
849.3739926011422
 30
0.0
 10
705.2323327163672
 20
849.4142143934444
 30
0.0
 10
705.3518185803173
 20
849.5081266840414
 30
0.0
 10
705.6524394891499
 20
849.7582549160597
 30
0.0
 10
706.0543483203842
 20
850.1070221025773
 30
0.0
 10
706.5040130145321
 20
850.5097423029788
 30
0.0
 10
706.7673353634959
 20
850.7618868382688
 30
0.0
 10
706.8782891281439
 20
850.8739629377337
 30
0.0
  0
SPLINE
  5
AA
330
1F
100
AcDbEntity
  8
Miura_Table_9580-01_2D
100
AcDbSpline
210
0.0
220
0.0
230
1.0
 70
     8
 71
     3
 72
    12
 73
     8
 74
     0
 42
0.0000000001
 43
0.0000000001
 40
0.0
 40
0.0
 40
0.0
 40
0.0
 40
2.73591608993206
 40
5.43493518296994
 40
10.74089733582064
 40
16.11138166064301
 40
21.52862391160747
 40
21.52862391160747
 40
21.52862391160747
 40
21.52862391160747
 10
685.1543272035838
 20
842.5379148321445
 30
0.0
 10
686.0662880337045
 20
842.5444110408266
 30
0.0
 10
687.8772856645505
 20
842.6325076516534
 30
0.0
 10
691.4306408410298
 20
843.0937334418215
 30
0.0
 10
695.7657344937447
 20
844.194317879397
 30
0.0
 10
700.7042302009108
 20
846.3336776014892
 30
0.0
 10
703.7416114792782
 20
848.2803370280528
 30
0.0
 10
705.1791149315909
 20
849.3739926011422
 30
0.0
  0
SPLINE
  5
AB
330
1F
100
AcDbEntity
  8
Miura_Table_9580-01_2D
100
AcDbSpline
210
0.0
220
0.0
230
1.0
 70
    12
 71
     2
 72
     6
 73
     3
 74
     0
 42
0.0000000001
 43
0.0000000001
 40
0.0
 40
0.0
 40
0.0
 40
0.5724594400308637
 40
0.5724594400308637
 40
0.5724594400308637
 10
684.5818754876223
 20
842.538732350715
 30
0.0
 41
1.0
 10
684.868097809365
 20
842.5358474090149
 30
0.0
 41
0.9999625809148069
 10
685.1543272035838
 20
842.5379148321445
 30
0.0
 41
1.0
  0
SPLINE
  5
AC
330
1F
100
AcDbEntity
  8
Miura_Table_9580-01_2D
100
AcDbSpline
210
0.0
220
0.0
230
1.0
 70
     8
 71
     3
 72
    11
 73
     7
 74
     0
 42
0.0000000001
 43
0.0000000001
 40
0.0
 40
0.0
 40
0.0
 40
0.0
 40
2.743424606184175
 40
5.414828345882175
 40
10.77592486299058
 40
21.43397361190056
 40
21.43397361190056
 40
21.43397361190056
 40
21.43397361190056
 10
664.6517323677549
 20
849.373993446809
 30
0.0
 10
665.3798316964244
 20
848.819997297474
 30
0.0
 10
666.8610968175785
 20
847.7855425263213
 30
0.0
 10
669.9643259987965
 20
845.9718421924899
 30
0.0
 10
675.6990648679125
 20
843.4842064736138
 30
0.0
 10
681.0293235574331
 20
842.5743324913187
 30
0.0
 10
684.5818754876223
 20
842.538732350715
 30
0.0
  0
SPLINE
  5
AD
330
1F
100
AcDbEntity
  8
Miura_Table_9580-01_2D
100
AcDbSpline
210
0.0
220
0.0
230
1.0
 70
     8
 71
     3
 72
    12
 73
     8
 74
     0
 42
0.0000000001
 43
0.0000000001
 40
0.0
 40
0.0
 40
0.0
 40
0.0
 40
0.0980656229116343
 40
0.2035418359053462
 40
0.4140500476026759
 40
0.6218932345208525
 40
0.8516964985803366
 40
0.8516964985803366
 40
0.8516964985803366
 40
0.8516964985803366
 10
664.1592070604834
 20
850.048791295937
 30
0.0
 10
664.1675324411631
 20
850.017164056859
 30
0.0
 10
664.1881969495021
 20
849.9525113610646
 30
0.0
 10
664.2429860797388
 20
849.8255550725582
 30
0.0
 10
664.3338950047605
 20
849.675806160197
 30
0.0
 10
664.4759650866149
 20
849.5118951204204
 30
0.0
 10
664.5901220546061
 20
849.4202411331569
 30
0.0
 10
664.6517323677549
 20
849.373993446809
 30
0.0
  0
SPLINE
  5
AE
330
1F
100
AcDbEntity
  8
Miura_Table_9580-01_2D
100
AcDbSpline
210
0.0
220
0.0
230
1.0
 70
    12
 71
     2
 72
     6
 73
     3
 74
     0
 42
0.0000000001
 43
0.0000000001
 40
0.0
 40
0.0
 40
0.0
 40
0.2017970891503139
 40
0.2017970891503139
 40
0.2017970891503139
 10
664.1311450055932
 20
850.2481209194618
 30
0.0
 41
1.0
 10
664.132936253898
 20
850.146732965156
 30
0.0
 41
0.9925431650836243
 10
664.1592070604834
 20
850.048791295937
 30
0.0
 41
1.0
  0
SPLINE
  5
AF
330
1F
100
AcDbEntity
  8
Miura_Table_9580-01_2D
100
AcDbSpline
210
0.0
220
0.0
230
1.0
 70
    12
 71
     5
 72
    12
 73
     6
 74
     0
 42
0.0000000001
 43
0.0000000001
 40
0.0
 40
0.0
 40
0.0
 40
0.0
 40
0.0
 40
0.0
 40
0.8739897245742342
 40
0.8739897245742342
 40
0.8739897245742342
 40
0.8739897245742342
 40
0.8739897245742342
 40
0.8739897245742342
 10
664.4522206300276
 20
850.8743020749243
 30
0.0
 41
1.0
 10
664.3440407797193
 20
850.7661222245804
 30
0.0
 41
1.0
 10
664.2358609294411
 20
850.6579423742453
 30
0.0
 41
1.0
 10
664.1624512011899
 20
850.5311988580297
 30
0.0
 41
1.0
 10
664.1293401679636
 20
850.3912794201105
 30
0.0
 41
1.0
 10
664.1311450055932
 20
850.2481209194618
 30
0.0
 41
1.0
  0
SPLINE
  5
B0
330
1F
100
AcDbEntity
  8
Miura_Table_9580-01_2D
100
AcDbSpline
210
0.0
220
0.0
230
1.0
 70
    12
 71
     2
 72
     6
 73
     3
 74
     0
 42
0.0000000001
 43
0.0000000001
 40
-0.5606600998610313
 40
-0.5606600998610313
 40
-0.5606600998610313
 40
0.0
 40
0.0
 40
0.0
 10
664.8486671883697
 20
851.2707486335894
 30
0.0
 41
1.0
 10
664.6504439353691
 20
851.072525328174
 30
0.0
 41
0.9999999999999913
 10
664.4522206300276
 20
850.8743020749243
 30
0.0
 41
1.0
  0
SPLINE
  5
B1
330
1F
100
AcDbEntity
  8
Miura_Table_9580-01_2D
100
AcDbSpline
210
0.0
220
0.0
230
1.0
 70
    12
 71
     5
 72
    12
 73
     6
 74
     0
 42
0.0000000001
 43
0.0000000001
 40
0.0589558208107204
 40
0.0589558208107204
 40
0.0589558208107204
 40
0.0589558208107204
 40
0.0589558208107204
 40
0.0589558208107204
 40
0.9432931329715265
 40
0.9432931329715265
 40
0.9432931329715265
 40
0.9432931329715265
 40
0.9432931329715265
 40
0.9432931329715265
 10
665.6603547776217
 20
851.6238961631307
 30
0.0
 41
1.0
 10
665.5311895163254
 20
851.620342090122
 30
0.0
 41
1.0
 10
665.364038477243
 20
851.5916018584874
 30
0.0
 41
1.0
 10
665.0112638882451
 20
851.4333453334577
 30
0.0
 41
1.0
 10
664.9299655383552
 20
851.3520469835246
 30
0.0
 41
1.0
 10
664.8486671883697
 20
851.2707486335894
 30
0.0
 41
1.0
  0
SPLINE
  5
B2
330
1F
100
AcDbEntity
  8
Miura_Table_9580-01_2D
100
AcDbSpline
210
0.0
220
0.0
230
1.0
 70
    24
 71
     2
 72
     6
 73
     3
 74
     0
 42
0.0000000001
 43
0.0000000001
 40
0.0
 40
0.0
 40
0.0
 40
436.03635649731
 40
436.03635649731
 40
436.03635649731
 10
973.314353106713
 20
1159.948566390337
 30
0.0
 10
819.1522206946852
 20
1005.786434279242
 30
0.0
 10
664.9900882826573
 20
851.6243021681469
 30
0.0
  0
SPLINE
  5
B3
330
1F
100
AcDbEntity
  8
Miura_Table_9580-01_2D
100
AcDbSpline
210
0.0
220
0.0
230
1.0
 70
     8
 71
     3
 72
    14
 73
    10
 74
     0
 42
0.0000000001
 43
0.0000000001
 40
0.0
 40
0.0
 40
0.0
 40
0.0
 40
0.9891480038174153
 40
2.048682505589698
 40
4.284630339927826
 40
5.914186096750435
 40
6.608070935285521
 40
9.47879807401191
 40
12.82201302314979
 40
12.82201302314979
 40
12.82201302314979
 40
12.82201302314979
 10
982.2845847036428
 20
1169.107868271177
 30
0.0
 10
982.0649145446064
 20
1168.861984389249
 30
0.0
 10
981.6062603565829
 20
1168.356025400281
 30
0.0
 10
980.6341034742732
 20
1167.309705117749
 30
0.0
 10
979.496276903556
 20
1166.126173322755
 30
0.0
 10
978.4256243428431
 20
1165.047491458692
 30
0.0
 10
977.1987148794474
 20
1163.82585607138
 30
0.0
 10
975.5625210851153
 20
1162.205694425187
 30
0.0
 10
974.1021904436534
 20
1160.736730435528
 30
0.0
 10
973.314353106713
 20
1159.948566390337
 30
0.0
  0
SPLINE
  5
B4
330
1F
100
AcDbEntity
  8
Miura_Table_9580-01_2D
100
AcDbSpline
210
0.0
220
0.0
230
1.0
 70
     8
 71
     5
 72
    12
 73
     6
 74
     0
 42
0.0000000001
 43
0.0000000001
 40
0.0
 40
0.0
 40
0.0
 40
0.0
 40
0.0
 40
0.0
 40
1.0
 40
1.0
 40
1.0
 40
1.0
 40
1.0
 40
1.0
 10
989.6229300873488
 20
1178.721068032123
 30
0.0
 10
988.3048040098261
 20
1176.692980127635
 30
0.0
 10
986.9098784499388
 20
1174.714806923698
 30
0.0
 10
985.4276676223594
 20
1172.786848866097
 30
0.0
 10
983.8960786952498
 20
1170.911665382715
 30
0.0
 10
982.2845847036428
 20
1169.107868271177
 30
0.0
  0
SPLINE
  5
B5
330
1F
100
AcDbEntity
  8
Miura_Table_9580-01_2D
100
AcDbSpline
210
0.0
220
0.0
230
1.0
 70
     8
 71
     3
 72
    13
 73
     9
 74
     0
 42
0.0000000001
 43
0.0000000001
 40
0.0
 40
0.0
 40
0.0
 40
0.0
 40
3.162722799211982
 40
5.963232700855801
 40
11.82659241116913
 40
23.58923876696889
 40
35.36859962543459
 40
47.14230545140192
 40
47.14230545140192
 40
47.14230545140192
 40
47.14230545140192
 10
1002.545805686016
 20
1223.353206781325
 30
0.0
 10
1002.548009920058
 20
1222.299037954946
 30
0.0
 10
1002.539290425581
 20
1220.310908652631
 30
0.0
 10
1002.364179487608
 20
1216.371969166913
 30
0.0
 10
1001.696769864132
 20
1209.591351220569
 30
0.0
 10
999.6632838701084
 20
1199.975658501215
 30
0.0
 10
995.5546904744992
 20
1188.909970551333
 30
0.0
 10
991.7616159425238
 20
1182.011681114092
 30
0.0
 10
989.6229300873488
 20
1178.721068032123
 30
0.0
  0
SPLINE
  5
B6
330
1F
100
AcDbEntity
  8
Miura_Table_9580-01_2D
100
AcDbSpline
210
0.0
220
0.0
230
1.0
 70
    12
 71
     2
 72
     6
 73
     3
 74
     0
 42
0.0000000001
 43
0.0000000001
 40
0.0
 40
0.0
 40
0.0
 40
1.347660071043663
 40
1.347660071043663
 40
1.347660071043663
 10
1003.323521482682
 20
1224.329221175739
 30
0.0
 41
1.0
 10
1002.545008423112
 20
1224.151702200772
 30
0.0
 41
0.781453218492171
 10
1002.545805686016
 20
1223.353206781325
 30
0.0
 41
1.0
  0
SPLINE
  5
B7
330
1F
100
AcDbEntity
  8
Miura_Table_9580-01_2D
100
AcDbSpline
210
0.0
220
0.0
230
1.0
 70
    12
 71
     2
 72
     6
 73
     3
 74
     0
 42
0.0000000001
 43
0.0000000001
 40
0.0
 40
0.0
 40
0.0
 40
0.4549953359630085
 40
0.4549953359630085
 40
0.4549953359630085
 10
1017.632415495253
 20
1154.780706948402
 30
0.0
 41
1.0
 10
1017.863508171096
 20
1154.794536454375
 30
0.0
 41
0.9742292604962514
 10
1018.065008090808
 20
1154.908522692229
 30
0.0
 41
1.0
  0
SPLINE
  5
B8
330
1F
100
AcDbEntity
  8
Miura_Table_9580-01_2D
100
AcDbSpline
210
0.0
220
0.0
230
1.0
 70
     8
 71
     3
 72
    20
 73
    16
 74
     0
 42
0.0000000001
 43
0.0000000001
 40
-431.4835608872114
 40
-431.4835608872114
 40
-431.4835608872114
 40
-431.4835608872114
 40
-25.59720475510172
 40
-25.59720475510172
 40
-25.59720475510172
 40
-23.041181434814
 40
-22.35224480279041
 40
-22.35224480279041
 40
-22.35224480279041
 40
-20.7744918917307
 40
-0.3474546757883483
 40
-0.3474546757883483
 40
-0.3474546757883483
 40
0.9942450456762053
 40
2.82110455926947
 40
2.82110455926947
 40
2.82110455926947
 40
2.82110455926947
 10
707.6286276355663
 20
851.6243020772599
 30
0.0
 10
803.2969518233263
 20
947.2926411568072
 30
0.0
 10
898.9652760110871
 20
1042.960980236354
 30
0.0
 10
994.6336001988461
 20
1138.629319315901
 30
0.0
 10
995.2406219525551
 20
1139.227077644547
 30
0.0
 10
996.0145753384609
 20
1139.983040083629
 30
0.0
 10
996.8080080584737
 20
1140.718168781232
 30
0.0
 10
996.9772886081296
 20
1140.873343616366
 30
0.0
 10
997.364722920524
 20
1141.228494020077
 30
0.0
 10
1002.860731611854
 20
1146.068513758604
 30
0.0
 10
1008.170394988669
 20
1151.699918549482
 30
0.0
 10
1014.525120662704
 20
1154.140891029167
 30
0.0
 10
1014.942542506645
 20
1154.301230796098
 30
0.0
 10
1015.957749742213
 20
1154.603032174829
 30
0.0
 10
1017.024710283421
 20
1154.744339448537
 30
0.0
 10
1017.632415495252
 20
1154.780706948401
 30
0.0
  0
SPLINE
  5
B9
330
1F
100
AcDbEntity
  8
Miura_Table_9580-01_2D
100
AcDbSpline
210
0.0
220
0.0
230
1.0
 70
     8
 71
     3
 72
    11
 73
     7
 74
     0
 42
0.0000000001
 43
0.0000000001
 40
0.0081002585430663
 40
0.0081002585430663
 40
0.0081002585430663
 40
0.0081002585430663
 40
0.76990063300263
 40
0.76990063300263
 40
0.76990063300263
 40
3.675276053828606
 40
3.675276053828606
 40
3.675276053828606
 40
3.675276053828606
 10
1049.310726940697
 20
1219.937250712708
 30
0.0
 10
1049.356248388005
 20
1219.68723273872
 30
0.0
 10
1049.515794738978
 20
1219.329221140767
 30
0.0
 10
1049.769682114372
 20
1219.329221141812
 30
0.0
 10
1050.738140587982
 20
1219.329221145802
 30
0.0
 10
1051.70659906159
 20
1219.329221149792
 30
0.0
 10
1052.675057535198
 20
1219.329221159766
 30
0.0
  0
SPLINE
  5
BA
330
1F
100
AcDbEntity
  8
Miura_Table_9580-01_2D
100
AcDbSpline
210
0.0
220
0.0
230
1.0
 70
    12
 71
     2
 72
     6
 73
     3
 74
     0
 42
0.0000000001
 43
0.0000000001
 40
-0.3761526883931789
 40
-0.3761526883931789
 40
-0.3761526883931789
 40
0.0
 40
0.0
 40
0.0
 10
1049.24389142163
 20
1220.307417913494
 30
0.0
 41
1.0
 10
1049.27703721083
 20
1220.122285207512
 30
0.0
 41
0.9999989203661542
 10
1049.310726940697
 20
1219.937250712708
 30
0.0
 41
1.0
  0
SPLINE
  5
BB
330
1F
100
AcDbEntity
  8
Miura_Table_9580-01_2D
100
AcDbSpline
210
0.0
220
0.0
230
1.0
 70
     8
 71
     3
 72
    15
 73
    11
 74
     0
 42
0.0000000001
 43
0.0000000001
 40
-5.517215510995963
 40
-5.517215510995963
 40
-5.517215510995963
 40
-5.517215510995963
 40
-4.92773864084709
 40
-4.318670834827659
 40
-3.704388331691281
 40
-3.058194976662103
 40
-2.377907408399817
 40
-1.641856638493278
 40
-0.8506135065108558
 40
0.0
 40
0.0
 40
0.0
 40
0.0
 10
1046.023572199482
 20
1224.32914555056
 30
0.0
 10
1046.218427970425
 20
1224.303815707769
 30
0.0
 10
1046.609485739977
 20
1224.212891457285
 30
0.0
 10
1047.161311076392
 20
1223.958841426625
 30
0.0
 10
1047.666868017161
 20
1223.589655704556
 30
0.0
 10
1048.112615630899
 20
1223.11736584148
 30
0.0
 10
1048.497354858082
 20
1222.545181150593
 30
0.0
 10
1048.817338568607
 20
1221.880725906442
 30
0.0
 10
1049.072111919901
 20
1221.128856589701
 30
0.0
 10
1049.193925476405
 20
1220.586498028023
 30
0.0
 10
1049.24389142163
 20
1220.307417913494
 30
0.0
  0
SPLINE
  5
BC
330
1F
100
AcDbEntity
  8
Miura_Table_9580-01_2D
100
AcDbSpline
210
0.0
220
0.0
230
1.0
 70
    12
 71
     2
 72
     6
 73
     3
 74
     0
 42
0.0000000001
 43
0.0000000001
 40
-5.848452852216105
 40
-5.848452852216105
 40
-5.848452852216105
 40
0.0
 40
0.0
 40
0.0
 10
1040.175119348493
 20
1224.329221176016
 30
0.0
 41
1.0
 10
1043.099345775028
 20
1224.329263834905
 30
0.0
 41
0.9999999996213539
 10
1046.023572199482
 20
1224.32914555056
 30
0.0
 41
1.0
  0
SPLINE
  5
BD
330
1F
100
AcDbEntity
  8
Miura_Table_9580-01_2D
100
AcDbSpline
210
0.0
220
0.0
230
1.0
 70
    12
 71
     2
 72
     6
 73
     3
 74
     0
 42
0.0000000001
 43
0.0000000001
 40
0.0
 40
0.0
 40
0.0
 40
7.460028192515836
 40
7.460028192515836
 40
7.460028192515836
 10
1032.715091162269
 20
1224.329425183452
 30
0.0
 41
1.0
 10
1036.445105249967
 20
1224.329125203158
 30
0.0
 41
0.9999999985914357
 10
1040.175119348493
 20
1224.329221176016
 30
0.0
 41
1.0
  0
SPLINE
  5
BE
330
1F
100
AcDbEntity
  8
Miura_Table_9580-01_2D
100
AcDbSpline
210
0.0
220
0.0
230
1.0
 70
    12
 71
     2
 72
     6
 73
     3
 74
     0
 42
0.0000000001
 43
0.0000000001
 40
0.0
 40
0.0
 40
0.0
 40
0.0159951658560524
 40
0.0159951658560524
 40
0.0159951658560524
 10
1032.699096285038
 20
1224.329329160829
 30
0.0
 41
1.0
 10
1032.707093705052
 20
1224.329380270706
 30
0.0
 41
0.999999924943241
 10
1032.715091162269
 20
1224.329425183452
 30
0.0
 41
1.0
  0
SPLINE
  5
BF
330
1F
100
AcDbEntity
  8
Miura_Table_9580-01_2D
100
AcDbSpline
210
0.0
220
0.0
230
1.0
 70
    12
 71
     3
 72
    54
 73
    50
 74
     0
 42
0.0000000001
 43
0.0000000001
 40
-36.3735092767428
 40
-36.3735092767428
 40
-36.3735092767428
 40
-36.3735092767428
 40
-35.65104266691848
 40
-35.51144398999158
 40
-35.26611209216914
 40
-35.10822082106448
 40
-35.01354362312178
 40
-34.93913335904487
 40
-34.75994055350136
 40
-34.55514104781032
 40
-34.31738447665442
 40
-34.04971475097287
 40
-33.65792912305069
 40
-33.23516828083971
 40
-32.29041859629451
 40
-31.25837170456729
 40
-30.19949178401347
 40
-30.19949178401347
 40
-30.19949178401347
 40
-29.4960952416352
 40
-29.4960952416352
 40
-28.79304492415562
 40
-28.79304492415562
 40
-28.79304492415562
 40
-20.11557317593713
 40
-20.11557317593713
 40
-20.11557317593713
 40
-8.53272600516803
 40
-8.53272600516803
 40
-8.53272600516803
 40
-8.268823246790324
 40
-8.268823246790324
 40
-8.268823246790324
 40
-7.121775403209211
 40
-7.121775403209211
 40
-7.121775403209211
 40
-5.332336009370444
 40
-3.594248314605104
 40
-2.749108168344543
 40
-1.884922955709098
 40
-1.047676823306014
 40
-0.6247475337379003
 40
-0.1840573543565883
 40
-0.1840573543565883
 40
-0.1840573543565883
 40
-0.0163079898344346
 40
-0.0163079898344346
 40
-0.0163079898344346
 40
0.0
 40
0.0
 40
0.0
 40
0.0
 10
1002.67551669021
 20
1224.329221176015
 30
0.0
 41
0.999999524845157
 10
1002.916550754052
 20
1224.329226817667
 30
0.0
 41
0.999999524845157
 10
1003.203905844587
 20
1224.329210542291
 30
0.0
 41
0.999999524845157
 10
1003.573027156103
 20
1224.329330203329
 30
0.0
 41
0.999999524845157
 10
1003.754033074937
 20
1224.328553236604
 30
0.0
 41
0.999999524845157
 10
1003.919860146133
 20
1224.330469435921
 30
0.0
 41
0.999999524845157
 10
1004.029096465971
 20
1224.32766152408
 30
0.0
 41
0.999999524845157
 10
1004.143117204222
 20
1224.304279041833
 30
0.0
 41
0.999999524845157
 10
1004.285727285025
 20
1224.246867671426
 30
0.0
 41
0.999999524845157
 10
1004.459521530436
 20
1224.13253967868
 30
0.0
 41
0.999999524845157
 10
1004.635876339019
 20
1223.973850405679
 30
0.0
 41
0.999999524845157
 10
1004.832790479521
 20
1223.748102973651
 30
0.0
 41
0.999999524845157
 10
1005.038213246117
 20
1223.45096478669
 30
0.0
 41
0.999999524845157
 10
1005.321378203853
 20
1222.936516133202
 30
0.0
 41
0.999999524845157
 10
1005.617356187061
 20
1222.191265700194
 30
0.0
 41
0.999999524845157
 10
1005.866850828891
 20
1221.208708800243
 30
0.0
 41
0.999999524845157
 10
1005.960967597858
 20
1220.517117743751
 30
0.0
 41
0.999999524845157
 10
1005.989938119293
 20
1220.165330815212
 30
0.0
 41
0.999999524845157
 10
1006.009277894957
 20
1219.931457354793
 30
0.0
 41
0.999999524845157
 10
1006.069033347321
 20
1219.719461234003
 30
0.0
 41
0.999999524845157
 10
1006.25340830975
 20
1219.412933855051
 30
0.0
 41
0.999999524845157
 10
1006.371840964536
 20
1219.329215822749
 30
0.0
 41
0.999999524845157
 10
1006.497771259741
 20
1219.329221169852
 30
0.0
 41
0.999999524845157
 10
1009.390261842482
 20
1219.329221187813
 30
0.0
 41
0.999999524845157
 10
1012.282752425222
 20
1219.329221193147
 30
0.0
 41
0.999999524845157
 10
1015.17524300796
 20
1219.329221185853
 30
0.0
 41
0.999999524845157
 10
1019.036192064882
 20
1219.329221171173
 30
0.0
 41
0.999999524845157
 10
1022.897141121806
 20
1219.329221156493
 30
0.0
 41
0.999999524845157
 10
1026.758090178728
 20
1219.329221141813
 30
0.0
 41
0.999999524845157
 10
1026.846312198326
 20
1219.329205509861
 30
0.0
 41
0.9942088042594844
 10
1026.933725162038
 20
1219.340958689876
 30
0.0
 41
0.9942086996797163
 10
1027.018810543694
 20
1219.364276510933
 30
0.0
 41
0.9999992111058522
 10
1027.40922762371
 20
1219.471680863257
 30
0.0
 41
0.8933366331508513
 10
1027.679094031131
 20
1219.773702924338
 30
0.0
 41
0.8933368961155672
 10
1027.742055708005
 20
1220.173698947475
 30
0.0
 41
1.0
 10
1027.834937818618
 20
1220.762717093143
 30
0.0
 41
1.0
 10
1028.211740878805
 20
1221.89502331327
 30
0.0
 41
1.0
 10
1029.132887969611
 20
1223.054761007603
 30
0.0
 41
1.0
 10
1030.070296559061
 20
1223.728579886695
 30
0.0
 41
1.0
 10
1030.842652805698
 20
1224.089356418441
 30
0.0
 41
1.0
 10
1031.531893590631
 20
1224.264842008071
 30
0.0
 41
1.0
 10
1032.095993340953
 20
1224.327788238562
 30
0.0
 41
1.0
 10
1032.384188618891
 20
1224.330231339653
 30
0.0
 41
1.0
 10
1032.531033564816
 20
1224.329758263425
 30
0.0
 41
1.0
 10
1032.58695001862
 20
1224.329758924047
 30
0.0
 41
0.999999999998273
 10
1032.642866479892
 20
1224.329720807144
 30
0.0
 41
0.999999999998273
 10
1032.698782948635
 20
1224.329643912716
 30
0.0
 41
1.0
 10
1032.704218954
 20
1224.329556468367
 30
0.0
 41
0.9999999998057724
 10
1032.693660399432
 20
1224.329294421195
 30
0.0
 41
0.9999999998057724
 10
1032.699096285038
 20
1224.329329160829
 30
0.0
 41
1.0
  0
SPLINE
  5
C0
330
1F
100
AcDbEntity
  8
Miura_Table_9580-01_2D
100
AcDbSpline
210
0.0
220
0.0
230
1.0
 70
     8
 71
     3
 72
    12
 73
     8
 74
     0
 42
0.0000000001
 43
0.0000000001
 40
0.0
 40
0.0
 40
0.0
 40
0.0
 40
0.0783339057735422
 40
0.1543752911000592
 40
0.3458434999895036
 40
0.5566067183729958
 40
0.745730808072604
 40
0.745730808072604
 40
0.745730808072604
 40
0.745730808072604
 10
1222.591099677401
 20
851.2707738141514
 30
0.0
 10
1222.579665444706
 20
851.2942154977236
 30
0.0
 10
1222.55504555467
 20
851.3396986087482
 30
0.0
 10
1222.478107914141
 20
851.4265423862078
 30
0.0
 10
1222.346156568745
 20
851.5179115441065
 30
0.0
 10
1222.165113081489
 20
851.5981722659594
 30
0.0
 10
1222.032739718008
 20
851.6220550138341
 30
0.0
 10
1221.969687060461
 20
851.6236259209511
 30
0.0
  0
SPLINE
  5
C1
330
1F
100
AcDbEntity
  8
Miura_Table_9580-01_2D
100
AcDbSpline
210
0.0
220
0.0
230
1.0
 70
    24
 71
     2
 72
     6
 73
     3
 74
     0
 42
0.0000000001
 43
0.0000000001
 40
0.0
 40
0.0
 40
0.0
 40
0.4432407273142656
 40
0.4432407273142656
 40
0.4432407273142656
 10
1222.789339998882
 20
850.8742947284575
 30
0.0
 10
1222.690219838141
 20
851.0725342713044
 30
0.0
 10
1222.591099677401
 20
851.2707738141514
 30
0.0
  0
SPLINE
  5
C2
330
1F
100
AcDbEntity
  8
Miura_Table_9580-01_2D
100
AcDbSpline
210
0.0
220
0.0
230
1.0
 70
     8
 71
     3
 72
    16
 73
    12
 74
     0
 42
0.0000000001
 43
0.0000000001
 40
0.0
 40
0.0
 40
0.0
 40
0.0
 40
0.1493864394124331
 40
0.2793559016564561
 40
0.5550513490148504
 40
0.8392020165335362
 40
1.095708427849608
 40
1.300439052038603
 40
1.480820944991987
 40
1.644774875639234
 40
1.839449949945527
 40
1.839449949945527
 40
1.839449949945527
 40
1.839449949945527
 10
1222.049876298979
 20
849.3743033603091
 30
0.0
 10
1222.09167742273
 20
849.401377716053
 30
0.0
 10
1222.16939746581
 20
849.4527435253899
 30
0.0
 10
1222.316215938692
 20
849.5655452373437
 30
0.0
 10
1222.483640588779
 20
849.7238398475836
 30
0.0
 10
1222.657269229691
 20
849.9340303818763
 30
0.0
 10
1222.788318097388
 20
850.1460313019818
 30
0.0
 10
1222.868273055879
 20
850.345370464365
 30
0.0
 10
1222.8968423131
 20
850.5278255867045
 30
0.0
 10
1222.870928110296
 20
850.7078041149362
 30
0.0
 10
1222.818496677807
 20
850.8165216563971
 30
0.0
 10
1222.789339998882
 20
850.8742947284575
 30
0.0
  0
SPLINE
  5
C3
330
1F
100
AcDbEntity
  8
Miura_Table_9580-01_2D
100
AcDbSpline
210
0.0
220
0.0
230
1.0
 70
     8
 71
     3
 72
    12
 73
     8
 74
     0
 42
0.0000000001
 43
0.0000000001
 40
0.0
 40
0.0
 40
0.0
 40
0.0
 40
3.067510030199397
 40
6.111020822346612
 40
12.08884398209748
 40
18.2299956540746
 40
24.32566676622235
 40
24.32566676622235
 40
24.32566676622235
 40
24.32566676622235
 10
1199.055066791005
 20
842.5370524524083
 30
0.0
 10
1200.077576937115
 20
842.5369881907595
 30
0.0
 10
1202.114548583709
 20
842.612177783782
 30
0.0
 10
1206.122755231202
 20
843.0515710825948
 30
0.0
 10
1211.071543097969
 20
844.1397348595585
 30
0.0
 10
1216.767689919071
 20
846.2876969440151
 30
0.0
 10
1220.346290609492
 20
848.2669142511809
 30
0.0
 10
1222.049876298979
 20
849.3743033603091
 30
0.0
  0
SPLINE
  5
C4
330
1F
100
AcDbEntity
  8
Miura_Table_9580-01_2D
100
AcDbSpline
210
0.0
220
0.0
230
1.0
 70
     8
 71
     3
 72
    11
 73
     7
 74
     0
 42
0.0000000001
 43
0.0000000001
 40
0.0
 40
0.0
 40
0.0
 40
0.0
 40
3.125176035128539
 40
6.095599655767289
 40
12.14563159808566
 40
24.32538406836998
 40
24.32538406836998
 40
24.32538406836998
 40
24.32538406836998
 10
1176.060433272865
 20
849.3742545005034
 30
0.0
 10
1176.933875591828
 20
848.8064576560812
 30
0.0
 10
1178.678053106116
 20
847.7611693702377
 30
0.0
 10
1182.292876222495
 20
845.9331033287274
 30
0.0
 10
1188.919405365178
 20
843.4250156312887
 30
0.0
 10
1194.995021379917
 20
842.5366941143654
 30
0.0
 10
1199.055066791005
 20
842.5370524524083
 30
0.0
  0
SPLINE
  5
C5
330
1F
100
AcDbEntity
  8
Miura_Table_9580-01_2D
100
AcDbSpline
210
0.0
220
0.0
230
1.0
 70
     8
 71
     3
 72
    14
 73
    10
 74
     0
 42
0.0000000001
 43
0.0000000001
 40
0.0
 40
0.0
 40
0.0
 40
0.0
 40
0.1878442759905428
 40
0.377592525096296
 40
0.6122387701456025
 40
0.8889786116689307
 40
1.581028401171428
 40
1.879577165562933
 40
2.132521340345825
 40
2.132521340345825
 40
2.132521340345825
 40
2.132521340345825
 10
1174.5708426571
 20
850.8742209684733
 30
0.0
 10
1174.598440835604
 20
850.8179715316596
 30
0.0
 10
1174.65769168184
 20
850.7065813113904
 30
0.0
 10
1174.776057329393
 20
850.5400060953361
 30
0.0
 10
1174.926785973227
 20
850.3612119855441
 30
0.0
 10
1175.204107468854
 20
850.0711857570484
 30
0.0
 10
1175.516001441296
 20
849.785688178551
 30
0.0
 10
1175.83829796578
 20
849.5248495975436
 30
0.0
 10
1175.989301809336
 20
849.4197047524879
 30
0.0
 10
1176.060433272865
 20
849.3742545005034
 30
0.0
  0
SPLINE
  5
C6
330
1F
100
AcDbEntity
  8
Miura_Table_9580-01_2D
100
AcDbSpline
210
0.0
220
0.0
230
1.0
 70
    24
 71
     2
 72
     6
 73
     3
 74
     0
 42
0.0000000001
 43
0.0000000001
 40
0.0
 40
0.0
 40
0.0
 40
0.443128027777323
 40
0.443128027777323
 40
0.443128027777323
 10
1174.372605223469
 20
851.2706982170389
 30
0.0
 10
1174.471723940285
 20
851.0724595927561
 30
0.0
 10
1174.5708426571
 20
850.8742209684733
 30
0.0
  0
SPLINE
  5
C7
330
1F
100
AcDbEntity
  8
Miura_Table_9580-01_2D
100
AcDbSpline
210
0.0
220
0.0
230
1.0
 70
     8
 71
     3
 72
    13
 73
     9
 74
     0
 42
0.0000000001
 43
0.0000000001
 40
0.0
 40
0.0
 40
0.0
 40
0.0
 40
0.0876034865927682
 40
0.1633834879133184
 40
0.3033602437049218
 40
0.4266564189877514
 40
0.487622525187018
 40
0.563040151376382
 40
0.563040151376382
 40
0.563040151376382
 40
0.563040151376382
 10
1174.646782995229
 20
851.6238293304355
 30
0.0
 10
1174.617739164669
 20
851.6230948280265
 30
0.0
 10
1174.562843530992
 20
851.6189813006613
 30
0.0
 10
1174.465410887541
 20
851.5924061166133
 30
0.0
 10
1174.367885789787
 20
851.527165121902
 30
0.0
 10
1174.326110725668
 20
851.4211768012349
 30
0.0
 10
1174.341528641647
 20
851.3340370896053
 30
0.0
 10
1174.36116264917
 20
851.2933088172679
 30
0.0
 10
1174.372605223469
 20
851.2706982170389
 30
0.0
  0
SPLINE
  5
C8
330
1F
100
AcDbEntity
  8
Miura_Table_9580-01_2D
100
AcDbSpline
210
0.0
220
0.0
230
1.0
 70
    12
 71
     3
 72
    26
 73
    22
 74
     0
 42
0.0000000001
 43
0.0000000001
 40
-45.87114236150764
 40
-45.87114236150764
 40
-45.87114236150764
 40
-45.87114236150764
 40
-43.74827143190391
 40
-41.95073232195075
 40
-37.96290779321185
 40
-29.2091905711187
 40
-19.77032179938261
 40
-14.83888187793954
 40
-9.83637658103571
 40
-9.83637658103571
 40
-9.83637658103571
 40
-9.16749384238369
 40
-7.554830330056149
 40
-5.942166817728606
 40
-4.329503305401064
 40
-4.329503305401064
 40
-4.329503305401064
 40
0.0
 40
0.0
 40
0.0
 40
1.489429492300063
 40
1.489429492300063
 40
1.489429492300063
 40
1.489429492300063
 10
1062.145555713029
 20
1173.633915843364
 30
0.0
 41
1.0
 10
1061.870111324725
 20
1174.28567520244
 30
0.0
 41
1.0
 10
1061.33810171192
 20
1175.542369306523
 30
0.0
 41
1.0
 10
1060.377844321211
 20
1177.997397612762
 30
0.0
 41
1.0
 10
1058.777499070231
 20
1182.57360720968
 30
0.0
 41
1.0
 10
1056.788921087997
 20
1189.700296112434
 30
0.0
 41
1.0
 10
1055.24746436935
 20
1197.256839809909
 30
0.0
 41
1.0
 10
1054.251538364963
 20
1203.637813162556
 30
0.0
 41
1.0
 10
1053.840770114811
 20
1206.924010291995
 30
0.0
 41
1.0
 10
1053.657929273195
 20
1208.58142697977
 30
0.0
 41
1.0
 10
1053.633536512848
 20
1208.802542610735
 30
0.0
 41
1.0
 10
1053.551479299159
 20
1209.556840090684
 30
0.0
 41
1.0
 10
1053.418550746653
 20
1210.84415898168
 30
0.0
 41
1.0
 10
1053.266617238749
 20
1212.445911796645
 30
0.0
 41
1.0
 10
1053.176665444178
 20
1213.51407984314
 30
0.0
 41
1.0
 10
1053.134929801909
 20
1214.048503101348
 30
0.0
 41
1.0
 10
1053.022561791472
 20
1215.487371056692
 30
0.0
 41
0.999887491868595
 10
1052.936646276711
 20
1216.928060505188
 30
0.0
 41
0.999887491868595
 10
1052.877212256207
 20
1218.370085179004
 30
0.0
 41
1.0
 10
1052.854615339598
 20
1218.918345435114
 30
0.0
 41
0.8233637531700498
 10
1052.466556562636
 20
1219.306302023787
 30
0.0
 41
0.8233637531700498
 10
1051.91867166306
 20
1219.328373357754
 30
0.0
 41
1.0
  0
SPLINE
  5
C9
330
1F
100
AcDbEntity
  8
Miura_Table_9580-01_2D
100
AcDbSpline
210
0.0
220
0.0
230
1.0
 70
     8
 71
     3
 72
    15
 73
    11
 74
     0
 42
0.0000000001
 43
0.0000000001
 40
0.0
 40
0.0
 40
0.0
 40
0.0
 40
2.804057442577903
 40
5.813535061115351
 40
7.520094063378131
 40
12.01795169840552
 40
16.91927281030366
 40
18.14949344777262
 40
19.34253087904432
 40
21.65307934478401
 40
21.65307934478401
 40
21.65307934478401
 40
21.65307934478401
 10
1071.414941106731
 20
1153.978891153358
 30
0.0
 10
1070.996939260409
 20
1154.814894846523
 30
0.0
 10
1070.095610841318
 20
1156.623974922188
 30
0.0
 10
1068.970132821662
 20
1158.863788620414
 30
0.0
 10
1067.602653267781
 20
1161.613889436841
 30
0.0
 10
1065.993688075717
 20
1164.947989873289
 30
0.0
 10
1064.513687198766
 20
1168.16745284364
 30
0.0
 10
1063.52738422114
 20
1170.40089938207
 30
0.0
 10
1062.895150739869
 20
1171.846673241541
 30
0.0
 10
1062.445369935775
 20
1172.924492330105
 30
0.0
 10
1062.145555713029
 20
1173.633915843364
 30
0.0
  0
SPLINE
  5
CA
330
1F
100
AcDbEntity
  8
Miura_Table_9580-01_2D
100
AcDbSpline
210
0.0
220
0.0
230
1.0
 70
    24
 71
     2
 72
     6
 73
     3
 74
     0
 42
0.0000000001
 43
0.0000000001
 40
0.0
 40
0.0
 40
0.0
 40
338.0425444558308
 40
338.0425444558308
 40
338.0425444558308
 10
1222.592162769134
 20
851.6244476394434
 30
0.0
 10
1147.003551937932
 20
1002.801669396401
 30
0.0
 10
1071.414941106731
 20
1153.978891153358
 30
0.0
  0
LINE
  5
CB
330
1F
100
AcDbEntity
  8
Miura_Table_9580-01_2D
100
AcDbLine
 10
1174.124238411622
 20
851.6239840326032
 30
0.0
 11
1222.592162769134
 21
851.6244476394434
 31
0.0
  0
SPLINE
  5
CC
330
1F
100
AcDbEntity
  8
Miura_Table_9580-01_2D
100
AcDbSpline
210
0.0
220
0.0
230
1.0
 70
    24
 71
     2
 72
     6
 73
     3
 74
     0
 42
0.0000000001
 43
0.0000000001
 40
0.0
 40
0.0
 40
0.0
 40
327.5547231258826
 40
327.5547231258826
 40
327.5547231258826
 10
1027.637313032798
 20
1144.597834973489
 30
0.0
 10
1100.88077572221
 20
998.1109095030462
 30
0.0
 10
1174.124238411622
 20
851.6239840326032
 30
0.0
  0
SPLINE
  5
CD
330
1F
100
AcDbEntity
  8
Miura_Table_9580-01_2D
100
AcDbSpline
210
0.0
220
0.0
230
1.0
 70
     8
 71
     3
 72
    46
 73
    42
 74
     0
 42
0.0000000001
 43
0.0000000001
 40
0.0
 40
0.0
 40
0.0
 40
0.0
 40
4.445528572919531
 40
9.136184748431083
 40
13.56629843505467
 40
20.52288534708523
 40
22.80023416032957
 40
26.47397545349463
 40
30.12593374789432
 40
33.12390876023884
 40
33.12390876023884
 40
33.12390876023884
 40
33.44213680694137
 40
33.79291129403629
 40
34.65617602833069
 40
35.95951821029371
 40
35.95951821029371
 40
35.95951821029371
 40
37.26413056451781
 40
38.4014712048069
 40
40.57038699906815
 40
42.7593198436251
 40
44.84110739718989
 40
45.77561526079327
 40
46.6545373728493
 40
47.46896338621529
 40
48.21895529454341
 40
48.90499283523491
 40
49.56381445895246
 40
50.22094840567009
 40
51.02557524063457
 40
51.02557524063457
 40
51.02557524063457
 40
56.82679662646953
 40
56.82679662646953
 40
56.82679662646953
 40
57.82809886771776
 40
58.78296253335561
 40
60.89975999567615
 40
62.90994723231162
 40
65.188593675824
 40
65.188593675824
 40
65.188593675824
 40
65.188593675824
 10
1014.694760588375
 20
1202.79042177328
 30
0.0
 10
1014.59520732495
 20
1201.311927653123
 30
0.0
 10
1014.375455959449
 20
1198.274434798827
 30
0.0
 10
1014.00855630302
 20
1193.767208391434
 30
0.0
 10
1013.537604051399
 20
1188.428800839097
 30
0.0
 10
1013.113464262553
 20
1183.893901621351
 30
0.0
 10
1012.723776183601
 20
1179.609021601877
 30
0.0
 10
1012.447742399947
 20
1176.41991570399
 30
0.0
 10
1012.190190773972
 20
1172.988228074455
 30
0.0
 10
1012.068479785465
 20
1170.771445867947
 30
0.0
 10
1012.030243088056
 20
1169.772839473379
 30
0.0
 10
1012.026184440029
 20
1169.666842037719
 30
0.0
 10
1012.018100799995
 20
1169.443984526227
 30
0.0
 10
1012.003186659597
 20
1168.933447486501
 30
0.0
 10
1011.982021387727
 20
1168.094579591967
 30
0.0
 10
1011.973419180159
 20
1167.372399027011
 30
0.0
 10
1011.973461717613
 20
1166.937944661841
 30
0.0
 10
1011.973073398548
 20
1166.503108040507
 30
0.0
 10
1011.983515208978
 20
1165.688930610026
 30
0.0
 10
1012.081123509879
 20
1164.154594026661
 30
0.0
 10
1012.361388107892
 20
1162.340723939022
 30
0.0
 10
1012.961432220911
 20
1160.275018373478
 30
0.0
 10
1013.666429012761
 20
1158.684611907672
 30
0.0
 10
1014.333569724398
 20
1157.569000638608
 30
0.0
 10
1014.849769832814
 20
1156.860216084925
 30
0.0
 10
1015.396066114196
 20
1156.254329939198
 30
0.0
 10
1015.964576834509
 20
1155.762384674419
 30
0.0
 10
1016.553241201614
 20
1155.383283010594
 30
0.0
 10
1017.165046263645
 20
1155.111500689196
 30
0.0
 10
1017.849737169722
 20
1154.928185475771
 30
0.0
 10
1018.334382785968
 20
1154.869405285116
 30
0.0
 10
1018.600808614885
 20
1154.840009516854
 30
0.0
 10
1020.523509100731
 20
1154.626013244063
 30
0.0
 10
1022.733760766408
 20
1153.728369668875
 30
0.0
 10
1023.683931695793
 20
1152.044293325313
 30
0.0
 10
1023.847586963115
 20
1151.753403141918
 30
0.0
 10
1024.166515591558
 20
1151.184662166638
 30
0.0
 10
1024.821173545881
 20
1149.995259315904
 30
0.0
 10
1025.623347677755
 20
1148.503256806475
 30
0.0
 10
1026.615373068266
 20
1146.612453114785
 30
0.0
 10
1027.297635567787
 20
1145.277189903936
 30
0.0
 10
1027.637313032798
 20
1144.597834973489
 30
0.0
  0
SPLINE
  5
CE
330
1F
100
AcDbEntity
  8
Miura_Table_9580-01_2D
100
AcDbSpline
210
0.0
220
0.0
230
1.0
 70
     8
 71
     3
 72
    13
 73
     9
 74
     0
 42
0.0000000001
 43
0.0000000001
 40
0.0
 40
0.0
 40
0.0
 40
0.0
 40
1.195776873000196
 40
2.341423735031693
 40
4.878196780698156
 40
8.059055609734553
 40
9.89647813407859
 40
11.23169972175378
 40
11.23169972175378
 40
11.23169972175378
 40
11.23169972175378
 10
1015.310404597155
 20
1214.009975787672
 30
0.0
 10
1015.294860525154
 20
1213.611686581538
 30
0.0
 10
1015.262932613263
 20
1212.831864076403
 30
0.0
 10
1015.189190219147
 20
1211.20746620513
 30
0.0
 10
1015.070567564224
 20
1208.922767544776
 30
0.0
 10
1014.92300859191
 20
1206.408732961386
 30
0.0
 10
1014.792566897672
 20
1204.294920097833
 30
0.0
 10
1014.724661615823
 20
1203.234490523495
 30
0.0
 10
1014.694760588374
 20
1202.79042177328
 30
0.0
  0
SPLINE
  5
CF
330
1F
100
AcDbEntity
  8
Miura_Table_9580-01_2D
100
AcDbSpline
210
0.0
220
0.0
230
1.0
 70
    12
 71
     2
 72
     6
 73
     3
 74
     0
 42
0.0000000001
 43
0.0000000001
 40
0.0
 40
0.0
 40
0.0
 40
4.338894157400504
 40
4.338894157400504
 40
4.338894157400504
 10
1015.439589837639
 20
1218.349518256394
 30
0.0
 41
1.0
 10
1015.395009801517
 20
1216.177833713002
 30
0.0
 41
0.999957710116485
 10
1015.310404597155
 20
1214.009975787672
 30
0.0
 41
1.0
  0
SPLINE
  5
D0
330
1F
100
AcDbEntity
  8
Miura_Table_9580-01_2D
100
AcDbSpline
210
0.0
220
0.0
230
1.0
 70
    12
 71
     2
 72
     6
 73
     3
 74
     0
 42
0.0000000001
 43
0.0000000001
 40
0.0
 40
0.0
 40
0.0
 40
1.517675704074519
 40
1.517675704074519
 40
1.517675704074519
 10
1016.407303300427
 20
1219.328701186577
 30
0.0
 41
1.0
 10
1015.459051104918
 20
1219.297559958939
 30
0.0
 41
0.7256366645658145
 10
1015.439589837639
 20
1218.349518256394
 30
0.0
 41
1.0
  0
POLYLINE
  5
D1
330
1F
100
AcDbEntity
  8
Miura_Table_9580-01_2D
100
AcDb2dPolyline
 66
     1
 10
0.0
 20
0.0
 30
0.0
  0
VERTEX
  5
D2
330
D1
100
AcDbEntity
  8
Miura_Table_9580-01_2D
100
AcDbVertex
100
AcDb2dVertex
 10
664.9900882826573
 20
851.6243021681469
 30
0.0
  0
VERTEX
  5
D3
330
D1
100
AcDbEntity
  8
Miura_Table_9580-01_2D
100
AcDbVertex
100
AcDb2dVertex
 10
707.6286276355663
 20
851.6243020772599
 30
0.0
  0
SEQEND
  5
D4
330
D1
100
AcDbEntity
  8
Miura_Table_9580-01_2D
  0
SPLINE
  5
D5
330
1F
100
AcDbEntity
  8
Miura_Table_9580-01_2D
100
AcDbSpline
210
0.0
220
0.0
230
1.0
 70
    24
 71
     2
 72
     6
 73
     3
 74
     0
 42
0.0000000001
 43
0.0000000001
 40
0.0
 40
0.0
 40
0.0
 40
0.0003644189914382
 40
0.0003644189914382
 40
0.0003644189914382
 10
1002.675728548992
 20
1224.329221176072
 30
0.0
 10
1002.675546339496
 20
1224.329221176047
 30
0.0
 10
1002.675364130001
 20
1224.329221176022
 30
0.0
  0
SPLINE
  5
D6
330
1F
100
AcDbEntity
  8
Miura_Table_9580-01_2D
100
AcDbSpline
210
0.0
220
0.0
230
1.0
 70
     8
 71
     3
 72
    12
 73
     8
 74
     0
 42
0.0000000001
 43
0.0000000001
 40
0.0
 40
0.0
 40
0.0
 40
0.0
 40
0.1167120639292131
 40
0.2430944609352435
 40
0.5000268890606814
 40
0.7758895689378357
 40
1.056331722181715
 40
1.056331722181715
 40
1.056331722181715
 40
1.056331722181715
 10
1014.739398015948
 20
1219.32855766075
 30
0.0
 10
1014.778262720509
 20
1219.326989452654
 30
0.0
 10
1014.858987280383
 20
1219.317232058168
 30
0.0
 10
1015.019583862501
 20
1219.270723803199
 30
0.0
 10
1015.212432323218
 20
1219.159608813632
 30
0.0
 10
1015.396636473001
 20
1218.956753462479
 30
0.0
 10
1015.48059123165
 20
1218.78965757887
 30
0.0
 10
1015.51118131548
 20
1218.701305286703
 30
0.0
  0
ARC
  5
D7
330
1F
100
AcDbEntity
  8
Miura_Table_9580-01_2D
100
AcDbCircle
 10
1990.815657062558
 20
1219.928557532848
 30
0.0
 40
10.01354662635185
100
AcDbArc
 50
180.0
 51
183.4313498469807
  0
SPLINE
  5
D8
330
1F
100
AcDbEntity
  8
Miura_Table_9580-01_2D
100
AcDbSpline
210
0.0
220
0.0
230
1.0
 70
    12
 71
     2
 72
     6
 73
     3
 74
     0
 42
0.0000000001
 43
0.0000000001
 40
-3.332521385645805
 40
-3.332521385645805
 40
-3.332521385645805
 40
0.0
 40
0.0
 40
0.0
 10
1984.152583822476
 20
1219.329221170698
 30
0.0
 41
1.0
 10
1982.486323129652
 20
1219.329221190982
 30
0.0
 41
0.9999999999999998
 10
1980.82006243683
 20
1219.329221136301
 30
0.0
 41
1.0
  0
SPLINE
  5
D9
330
1F
100
AcDbEntity
  8
Miura_Table_9580-01_2D
100
AcDbSpline
210
0.0
220
0.0
230
1.0
 70
    24
 71
     2
 72
     6
 73
     3
 74
     0
 42
0.0000000001
 43
0.0000000001
 40
-8.348680839593044
 40
-8.348680839593044
 40
-8.348680839593044
 40
0.0
 40
0.0
 40
0.0
 10
1992.501264662068
 20
1219.32922114183
 30
0.0
 10
1988.326924242272
 20
1219.329221156264
 30
0.0
 10
1984.152583822476
 20
1219.329221170698
 30
0.0
  0
SPLINE
  5
DA
330
1F
100
AcDbEntity
  8
Miura_Table_9580-01_2D
100
AcDbSpline
210
0.0
220
0.0
230
1.0
 70
    24
 71
     2
 72
     6
 73
     3
 74
     0
 42
0.0000000001
 43
0.0000000001
 40
-0.0160983755549751
 40
-0.0160983755549751
 40
-0.0160983755549751
 40
0.0
 40
0.0
 40
0.0
 10
1992.517363037623
 20
1219.329221141734
 30
0.0
 10
1992.509313849846
 20
1219.329221141782
 30
0.0
 10
1992.501264662068
 20
1219.32922114183
 30
0.0
  0
SPLINE
  5
DB
330
1F
100
AcDbEntity
  8
Miura_Table_9580-01_2D
100
AcDbSpline
210
0.0
220
0.0
230
1.0
 70
    12
 71
     3
 72
    10
 73
     6
 74
     0
 42
0.0000000001
 43
0.0000000001
 40
-1.41140173157308
 40
-1.41140173157308
 40
-1.41140173157308
 40
-1.41140173157308
 40
-0.7080051891948135
 40
-0.7080051891948135
 40
-0.0049548717152337
 40
-0.0049548717152337
 40
-0.0049548717152337
 40
-0.0049548717152337
 10
1993.36330669691
 20
1220.165330815134
 30
0.0
 41
1.0
 10
1993.329612997156
 20
1219.931457354714
 30
0.0
 41
1.0
 10
1993.225188066281
 20
1219.719461233925
 30
0.0
 41
1.0
 10
1992.913748778609
 20
1219.412933854973
 30
0.0
 41
1.0
 10
1992.718078814384
 20
1219.32921582267
 30
0.0
 41
1.0
 10
1992.517363037623
 20
1219.329221141734
 30
0.0
 41
1.0
  0
SPLINE
  5
DC
330
1F
100
AcDbEntity
  8
Miura_Table_9580-01_2D
100
AcDbSpline
210
0.0
220
0.0
230
1.0
 70
     8
 71
     3
 72
    18
 73
    14
 74
     0
 42
0.0000000001
 43
0.0000000001
 40
-14.64921461756716
 40
-14.64921461756716
 40
-14.64921461756716
 40
-14.64921461756716
 40
-8.184836209513707
 40
-7.290264732586142
 40
-6.899780132333247
 40
-6.604817185447027
 40
-6.281926508383727
 40
-5.91772510768846
 40
-5.25048406050812
 40
-3.984914730732004
 40
-2.69671351258406
 40
-1.37770462440535
 40
0.0
 40
0.0
 40
0.0
 40
0.0
 10
2005.801986789319
 20
1224.329221175932
 30
0.0
 10
2003.647282163969
 20
1224.32912971084
 30
0.0
 10
2001.194424251427
 20
1224.329375130842
 30
0.0
 10
1998.611375188224
 20
1224.329108588168
 30
0.0
 10
1998.084755782458
 20
1224.329508323855
 30
0.0
 10
1997.748563743376
 20
1224.330278041235
 30
0.0
 10
1997.421663846553
 20
1224.310914063767
 30
0.0
 10
1996.973962321332
 20
1224.249378381916
 30
0.0
 10
1996.230018720242
 20
1224.060638830039
 30
0.0
 10
1995.262134060976
 20
1223.568670788328
 30
0.0
 10
1994.325957058193
 20
1222.659353291509
 30
0.0
 10
1993.662707602391
 20
1221.494885073481
 30
0.0
 10
1993.428701919455
 20
1220.619829762138
 30
0.0
 10
1993.36330669691
 20
1220.165330815134
 30
0.0
  0
SPLINE
  5
DD
330
1F
100
AcDbEntity
  8
Miura_Table_9580-01_2D
100
AcDbSpline
210
0.0
220
0.0
230
1.0
 70
     8
 71
     3
 72
    18
 73
    14
 74
     0
 42
0.0000000001
 43
0.0000000001
 40
0.0
 40
0.0
 40
0.0
 40
0.0
 40
1.377704624405373
 40
2.696713512584107
 40
3.984914730732072
 40
5.250484060508209
 40
5.917725107688561
 40
6.281926508383835
 40
6.60481718544714
 40
6.899780132333365
 40
7.290264732586267
 40
8.184836209513849
 40
14.64921461756716
 40
14.64921461756716
 40
14.64921461756716
 40
14.64921461756716
 10
2018.240666881729
 20
1220.165330815134
 30
0.0
 10
2018.175271659184
 20
1220.619829762138
 30
0.0
 10
2017.941265976248
 20
1221.494885073481
 30
0.0
 10
2017.278016520446
 20
1222.659353291509
 30
0.0
 10
2016.341839517663
 20
1223.568670788328
 30
0.0
 10
2015.373954858397
 20
1224.060638830039
 30
0.0
 10
2014.630011257307
 20
1224.249378381916
 30
0.0
 10
2014.182309732086
 20
1224.310914063767
 30
0.0
 10
2013.855409835263
 20
1224.330278041235
 30
0.0
 10
2013.519217796181
 20
1224.329508323855
 30
0.0
 10
2012.992598390415
 20
1224.329108588168
 30
0.0
 10
2010.409549327212
 20
1224.329375130842
 30
0.0
 10
2007.95669141467
 20
1224.32912971084
 30
0.0
 10
2005.801986789319
 20
1224.329221175932
 30
0.0
  0
SPLINE
  5
DE
330
1F
100
AcDbEntity
  8
Miura_Table_9580-01_2D
100
AcDbSpline
210
0.0
220
0.0
230
1.0
 70
    12
 71
     3
 72
    10
 73
     6
 74
     0
 42
0.0000000001
 43
0.0000000001
 40
0.0049548717152337
 40
0.0049548717152337
 40
0.0049548717152337
 40
0.0049548717152337
 40
0.7080051891948135
 40
0.7080051891948135
 40
1.41140173157308
 40
1.41140173157308
 40
1.41140173157308
 40
1.41140173157308
 10
2019.086610541015
 20
1219.329221141734
 30
0.0
 41
1.0
 10
2018.885894764255
 20
1219.32921582267
 30
0.0
 41
1.0
 10
2018.69022480003
 20
1219.412933854973
 30
0.0
 41
1.0
 10
2018.378785512358
 20
1219.719461233925
 30
0.0
 41
1.0
 10
2018.274360581483
 20
1219.931457354714
 30
0.0
 41
1.0
 10
2018.240666881729
 20
1220.165330815134
 30
0.0
 41
1.0
  0
SPLINE
  5
DF
330
1F
100
AcDbEntity
  8
Miura_Table_9580-01_2D
100
AcDbSpline
210
0.0
220
0.0
230
1.0
 70
    24
 71
     2
 72
     6
 73
     3
 74
     0
 42
0.0000000001
 43
0.0000000001
 40
0.0
 40
0.0
 40
0.0
 40
0.0160983755549751
 40
0.0160983755549751
 40
0.0160983755549751
 10
2019.10270891657
 20
1219.32922114183
 30
0.0
 10
2019.094659728793
 20
1219.329221141782
 30
0.0
 10
2019.086610541015
 20
1219.329221141734
 30
0.0
  0
SPLINE
  5
E0
330
1F
100
AcDbEntity
  8
Miura_Table_9580-01_2D
100
AcDbSpline
210
0.0
220
0.0
230
1.0
 70
    24
 71
     2
 72
     6
 73
     3
 74
     0
 42
0.0000000001
 43
0.0000000001
 40
0.0
 40
0.0
 40
0.0
 40
8.348680839593044
 40
8.348680839593044
 40
8.348680839593044
 10
2027.451389756163
 20
1219.329221170698
 30
0.0
 10
2023.277049336367
 20
1219.329221156264
 30
0.0
 10
2019.10270891657
 20
1219.32922114183
 30
0.0
  0
SPLINE
  5
E1
330
1F
100
AcDbEntity
  8
Miura_Table_9580-01_2D
100
AcDbSpline
210
0.0
220
0.0
230
1.0
 70
    12
 71
     2
 72
     6
 73
     3
 74
     0
 42
0.0000000001
 43
0.0000000001
 40
0.0
 40
0.0
 40
0.0
 40
3.332521385645805
 40
3.332521385645805
 40
3.332521385645805
 10
2030.783911141809
 20
1219.329221136301
 30
0.0
 41
1.0
 10
2029.117650448987
 20
1219.329221190982
 30
0.0
 41
0.9999999999999998
 10
2027.451389756163
 20
1219.329221170698
 30
0.0
 41
1.0
  0
ARC
  5
E2
330
1F
100
AcDbEntity
  8
Miura_Table_9580-01_2D
100
AcDbCircle
 10
2020.788316516081
 20
1219.928557532848
 30
0.0
 40
10.01354662635185
100
AcDbArc
 50
356.5686501530192
 51
0.0
  0
SPLINE
  5
E3
330
1F
100
AcDbEntity
  8
Miura_Table_9580-01_2D
100
AcDbSpline
210
0.0
220
0.0
230
1.0
 70
    12
 71
     3
 72
    12
 73
     8
 74
     0
 42
0.0000000001
 43
0.0000000001
 40
-0.5262507170806857
 40
-0.5262507170806857
 40
-0.5262507170806857
 40
-0.5262507170806857
 40
-0.5145170103963779
 40
-0.5145170103963779
 40
-0.2542829628112115
 40
-0.2542829628112115
 40
-0.0317448945959232
 40
-0.0317448945959232
 40
-0.0317448945959232
 40
-0.0317448945959232
 10
1984.67477761551
 20
1219.074553503297
 30
0.0
 41
1.0
 10
1984.672300937541
 20
1219.078990241262
 30
0.0
 41
1.0
 10
1984.66980960012
 20
1219.083359177803
 30
0.0
 41
1.0
 10
1984.611750742781
 20
1219.183007168897
 30
0.0
 41
1.0
 10
1984.552636673961
 20
1219.243135629093
 30
0.0
 41
1.0
 10
1984.449080433048
 20
1219.310954323618
 30
0.0
 41
1.0
 10
1984.403479212865
 20
1219.325430140245
 30
0.0
 41
1.0
 10
1984.359958279562
 20
1219.328558796693
 30
0.0
 41
1.0
  0
SPLINE
  5
E4
330
1F
100
AcDbEntity
  8
Miura_Table_9580-01_2D
100
AcDbSpline
210
0.0
220
0.0
230
1.0
 70
    12
 71
     3
 72
    18
 73
    14
 74
     0
 42
0.0000000001
 43
0.0000000001
 40
-17.08061118246446
 40
-17.08061118246446
 40
-17.08061118246446
 40
-17.08061118246446
 40
-15.57895392647034
 40
-15.57895392647034
 40
-15.57895392647034
 40
-11.24807156559795
 40
-11.24807156559795
 40
-11.24807156559795
 40
-8.873594413233326
 40
-6.279800604855796
 40
-3.187801552011507
 40
-1.394045745757029
 40
0.0
 40
0.0
 40
0.0
 40
0.0
 10
1985.30773626378
 20
1219.328647173279
 30
0.0
 41
1.0
 10
1984.753887125159
 20
1219.309959735908
 30
0.0
 41
0.8207490813200228
 10
1984.361699954458
 20
1218.918274327995
 30
0.0
 41
0.8207490813200228
 10
1984.34207448361
 20
1218.364220857144
 30
0.0
 41
1.0
 10
1984.290659062687
 20
1216.921182569114
 30
0.0
 41
0.9999156577956789
 10
1984.21628432987
 20
1215.479062430049
 30
0.0
 41
0.9999156577956789
 10
1984.118969103949
 20
1214.038225334723
 30
0.0
 41
1.0
 10
1984.065727161177
 20
1213.247877200099
 30
0.0
 41
1.0
 10
1983.941652356052
 20
1211.596393431111
 30
0.0
 41
1.0
 10
1983.701541062372
 20
1208.920329446839
 30
0.0
 41
1.0
 10
1983.450501115195
 20
1206.439789447333
 30
0.0
 41
1.0
 10
1983.226519603025
 20
1204.358536592798
 30
0.0
 41
1.0
 10
1983.108297601918
 20
1203.300395718466
 30
0.0
 41
1.0
 10
1983.054529801002
 20
1202.83883281523
 30
0.0
 41
1.0
  0
SPLINE
  5
E5
330
1F
100
AcDbEntity
  8
Miura_Table_9580-01_2D
100
AcDbSpline
210
0.0
220
0.0
230
1.0
 70
     8
 71
     3
 72
    16
 73
    12
 74
     0
 42
0.0000000001
 43
0.0000000001
 40
-33.3642801434906
 40
-33.3642801434906
 40
-33.3642801434906
 40
-33.3642801434906
 40
-24.17426881783292
 40
-19.70973193739507
 40
-17.41415730793448
 40
-12.69286067967022
 40
-10.39643749466709
 40
-6.695123544693319
 40
-3.023047667395003
 40
-1.441026840298903
 40
0.0
 40
0.0
 40
0.0
 40
0.0
 10
1983.054529801002
 20
1202.83883281523
 30
0.0
 10
1982.700070593139
 20
1199.7960224664
 30
0.0
 10
1982.0909474689
 20
1195.284977570274
 30
0.0
 10
1981.286828725961
 20
1190.029425115398
 30
0.0
 10
1980.689319180757
 20
1186.24919604181
 30
0.0
 10
1980.195532013606
 20
1183.184304968318
 30
0.0
 10
1979.640104431666
 20
1179.654697892443
 30
0.0
 10
1979.16220095311
 20
1176.467026240399
 30
0.0
 10
1978.77766655954
 20
1173.506453447156
 30
0.0
 10
1978.550655110431
 20
1171.286163017282
 30
0.0
 10
1978.470015075915
 20
1170.281666493979
 30
0.0
 10
1978.437677363993
 20
1169.802189912408
 30
0.0
  0
SPLINE
  5
E6
330
1F
100
AcDbEntity
  8
Miura_Table_9580-01_2D
100
AcDbSpline
210
0.0
220
0.0
230
1.0
 70
     8
 71
     3
 72
    12
 73
     8
 74
     0
 42
0.0000000001
 43
0.0000000001
 40
-2.866008512548971
 40
-2.866008512548971
 40
-2.866008512548971
 40
-2.866008512548971
 40
-2.1803500891602
 40
-1.316467333291305
 40
-0.6436630852735566
 40
-0.3236325452860642
 40
0.0
 40
0.0
 40
0.0
 40
0.0
 10
1978.437677363993
 20
1169.802189912408
 30
0.0
 10
1978.422138719518
 20
1169.573942598151
 30
0.0
 10
1978.394539342204
 20
1169.058160015944
 30
0.0
 10
1978.362793433196
 20
1168.318040918927
 30
0.0
 10
1978.345383445695
 20
1167.699361993879
 30
0.0
 10
1978.339541558352
 20
1167.26056749805
 30
0.0
 10
1978.338316682324
 20
1167.046020088405
 30
0.0
 10
1978.338314489422
 20
1166.938129734872
 30
0.0
  0
SPLINE
  5
E7
330
1F
100
AcDbEntity
  8
Miura_Table_9580-01_2D
100
AcDbSpline
210
0.0
220
0.0
230
1.0
 70
     8
 71
     3
 72
    13
 73
     9
 74
     0
 42
0.0000000001
 43
0.0000000001
 40
-8.067492795701002
 40
-8.067492795701002
 40
-8.067492795701002
 40
-8.067492795701002
 40
-6.929436622567084
 40
-5.933962300934526
 40
-4.0143213514352
 40
-2.037649979843423
 40
-1.015652899145925
 40
0.0
 40
0.0
 40
0.0
 40
0.0
 10
1978.338314489422
 20
1166.938129734872
 30
0.0
 10
1978.33766119538
 20
1166.558786753807
 30
0.0
 10
1978.351348776562
 20
1165.847409142216
 30
0.0
 10
1978.469974425084
 20
1164.500628472447
 30
0.0
 10
1978.814749819056
 20
1162.900735558531
 30
0.0
 10
1979.437168697404
 20
1161.37722784011
 30
0.0
 10
1980.092264122469
 20
1160.209608613041
 30
0.0
 10
1980.472300473468
 20
1159.645679019192
 30
0.0
 10
1980.672436816897
 20
1159.372735716731
 30
0.0
  0
SPLINE
  5
E8
330
1F
100
AcDbEntity
  8
Miura_Table_9580-01_2D
100
AcDbSpline
210
0.0
220
0.0
230
1.0
 70
     8
 71
     3
 72
    13
 73
     9
 74
     0
 42
0.0000000001
 43
0.0000000001
 40
0.0
 40
0.0
 40
0.0
 40
0.0
 40
0.0787536068012881
 40
0.1449423458634473
 40
0.266120321626831
 40
0.3853723078620238
 40
0.4472243187928732
 40
0.5284135023430945
 40
0.5284135023430945
 40
0.5284135023430945
 40
0.5284135023430945
 10
1732.023449159792
 20
851.6239213497831
 30
0.0
 10
1732.049637809132
 20
851.6233580906444
 30
0.0
 10
1732.098157643843
 20
851.6188650703484
 30
0.0
 10
1732.182788528123
 20
851.5913086527776
 30
0.0
 10
1732.259987410892
 20
851.5143533330979
 30
0.0
 10
1732.264864170217
 20
851.4068841098047
 30
0.0
 10
1732.225583073985
 20
851.3278477374838
 30
0.0
 10
1732.195038255886
 20
851.2910267244815
 30
0.0
 10
1732.177104274936
 20
851.2707350533399
 30
0.0
  0
SPLINE
  5
E9
330
1F
100
AcDbEntity
  8
Miura_Table_9580-01_2D
100
AcDbSpline
210
0.0
220
0.0
230
1.0
 70
    24
 71
     2
 72
     6
 73
     3
 74
     0
 42
0.0000000001
 43
0.0000000001
 40
0.0
 40
0.0
 40
0.0
 40
0.524413613475097
 40
0.524413613475097
 40
0.524413613475097
 10
1732.177104274936
 20
851.2707350533399
 30
0.0
 10
1732.005349813774
 20
851.0724101783859
 30
0.0
 10
1731.833595352612
 20
850.8740853034319
 30
0.0
  0
SPLINE
  5
EA
330
1F
100
AcDbEntity
  8
Miura_Table_9580-01_2D
100
AcDbSpline
210
0.0
220
0.0
230
1.0
 70
     8
 71
     3
 72
    12
 73
     8
 74
     0
 42
0.0000000001
 43
0.0000000001
 40
0.0
 40
0.0
 40
0.0
 40
0.0
 40
0.2152508561583033
 40
0.4345163837059823
 40
1.014949707012151
 40
1.738429140534348
 40
2.240363334908873
 40
2.240363334908873
 40
2.240363334908873
 40
2.240363334908873
 10
1731.833595352612
 20
850.8740853034319
 30
0.0
 10
1731.786556212559
 20
850.8195365690269
 30
0.0
 10
1731.690717886783
 20
850.7108805561497
 30
0.0
 10
1731.454361599262
 20
850.4686965715216
 30
0.0
 10
1731.082356071368
 20
850.1229463256047
 30
0.0
 10
1730.628554463231
 20
849.7274410649554
 30
0.0
 10
1730.310342492597
 20
849.4710395305945
 30
0.0
 10
1730.173702042716
 20
849.3742781272883
 30
0.0
  0
SPLINE
  5
EB
330
1F
100
AcDbEntity
  8
Miura_Table_9580-01_2D
100
AcDbSpline
210
0.0
220
0.0
230
1.0
 70
     8
 71
     3
 72
    12
 73
     8
 74
     0
 42
0.0000000001
 43
0.0000000001
 40
0.0
 40
0.0
 40
0.0
 40
0.0
 40
2.849423647238892
 40
5.573258475154479
 40
11.17057419198277
 40
16.6544972940824
 40
22.23406149512204
 40
22.23406149512204
 40
22.23406149512204
 40
22.23406149512204
 10
1730.173702042716
 20
849.3742781272883
 30
0.0
 10
1729.401471274937
 20
848.8211903713368
 30
0.0
 10
1727.849009306925
 20
847.7983245019939
 30
0.0
 10
1724.592575361912
 20
845.9875339022617
 30
0.0
 10
1720.330249626098
 20
844.217206542123
 30
0.0
 10
1714.92160055677
 20
842.888375225057
 30
0.0
 10
1711.23735959176
 20
842.5611613633846
 30
0.0
 10
1709.377640009844
 20
842.5394392927221
 30
0.0
  0
SPLINE
  5
EC
330
1F
100
AcDbEntity
  8
Miura_Table_9580-01_2D
100
AcDbSpline
210
0.0
220
0.0
230
1.0
 70
     8
 71
     5
 72
    12
 73
     6
 74
     0
 42
0.0000000001
 43
0.0000000001
 40
-1.0
 40
-1.0
 40
-1.0
 40
-1.0
 40
-1.0
 40
-1.0
 40
0.0
 40
0.0
 40
0.0
 40
0.0
 40
0.0
 40
0.0
 10
1709.377640009844
 20
842.5394392927221
 30
0.0
 10
1709.294869785743
 20
842.5384725122062
 30
0.0
 10
1709.212096798714
 20
842.5377422778388
 30
0.0
 10
1709.129319267972
 20
842.5373019103749
 30
0.0
 10
1709.046543412019
 20
842.5370572691888
 30
0.0
 10
1708.963767542111
 20
842.5370524524083
 30
0.0
  0
SPLINE
  5
ED
330
1F
100
AcDbEntity
  8
Miura_Table_9580-01_2D
100
AcDbSpline
210
0.0
220
0.0
230
1.0
 70
     8
 71
     3
 72
    12
 73
     8
 74
     0
 42
0.0000000001
 43
0.0000000001
 40
0.0
 40
0.0
 40
0.0
 40
0.0
 40
2.782398956976484
 40
5.60255636646087
 40
11.31396921066574
 40
16.96595331393149
 40
22.64829073387322
 40
22.64829073387322
 40
22.64829073387322
 40
22.64829073387322
 10
1708.963767542111
 20
842.5370524524083
 30
0.0
 10
1708.036295375656
 20
842.5369984822119
 30
0.0
 10
1706.16881346651
 20
842.609640268362
 30
0.0
 10
1702.419921998484
 20
843.0453575484328
 30
0.0
 10
1697.805747296894
 20
844.1416067141515
 30
0.0
 10
1692.534526600439
 20
846.3080274317608
 30
0.0
 10
1689.293740975096
 20
848.2719366532624
 30
0.0
 10
1687.753472615407
 20
849.3743362312666
 30
0.0
  0
SPLINE
  5
EE
330
1F
100
AcDbEntity
  8
Miura_Table_9580-01_2D
100
AcDbSpline
210
0.0
220
0.0
230
1.0
 70
     8
 71
     3
 72
    16
 73
    12
 74
     0
 42
0.0000000001
 43
0.0000000001
 40
0.0
 40
0.0
 40
0.0
 40
0.0
 40
0.1449268675943032
 40
0.2673386247060249
 40
0.5163843678365243
 40
0.7646474073394522
 40
0.9969847930951103
 40
1.194773719318494
 40
1.376962800151374
 40
1.556234553971886
 40
1.789638013214852
 40
1.789638013214852
 40
1.789638013214852
 40
1.789638013214852
 10
1687.753472615407
 20
849.3743362312666
 30
0.0
 10
1687.714097854883
 20
849.402427941536
 30
0.0
 10
1687.641987130879
 20
849.4548664830788
 30
0.0
 10
1687.511415584387
 20
849.5672878752443
 30
0.0
 10
1687.37302564575
 20
849.7216412358327
 30
0.0
 10
1687.243165398203
 20
849.9284012708522
 30
0.0
 10
1687.161025964566
 20
850.1404496585817
 30
0.0
 10
1687.134041348193
 20
850.3445344737518
 30
0.0
 10
1687.163410156168
 20
850.530854970383
 30
0.0
 10
1687.251944705679
 20
850.710418217091
 30
0.0
 10
1687.341710470769
 20
850.8155506826977
 30
0.0
 10
1687.392737992167
 20
850.8742575299648
 30
0.0
  0
SPLINE
  5
EF
330
1F
100
AcDbEntity
  8
Miura_Table_9580-01_2D
100
AcDbSpline
210
0.0
220
0.0
230
1.0
 70
    24
 71
     2
 72
     6
 73
     3
 74
     0
 42
0.0000000001
 43
0.0000000001
 40
0.0
 40
0.0
 40
0.0
 40
0.5244495011186676
 40
0.5244495011186676
 40
0.5244495011186676
 10
1687.392737992167
 20
850.8742575299648
 30
0.0
 10
1687.564486357831
 20
851.0725762102837
 30
0.0
 10
1687.736234723496
 20
851.2708948906027
 30
0.0
  0
SPLINE
  5
F0
330
1F
100
AcDbEntity
  8
Miura_Table_9580-01_2D
100
AcDbSpline
210
0.0
220
0.0
230
1.0
 70
     8
 71
     3
 72
    12
 73
     8
 74
     0
 42
0.0000000001
 43
0.0000000001
 40
0.0
 40
0.0
 40
0.0
 40
0.0
 40
0.089002379783791
 40
0.1797960093880787
 40
0.4111935266141908
 40
0.6556287843907624
 40
0.8529822444616082
 40
0.8529822444616082
 40
0.8529822444616082
 40
0.8529822444616082
 10
1687.736234723496
 20
851.2708948906027
 30
0.0
 10
1687.755546685331
 20
851.2936226954566
 30
0.0
 10
1687.796340362585
 20
851.3377507554449
 30
0.0
 10
1687.905017003784
 20
851.4220032729472
 30
0.0
 10
1688.071538185819
 20
851.5122604515575
 30
0.0
 10
1688.281045167342
 20
851.5940608005615
 30
0.0
 10
1688.426564529248
 20
851.6219096490452
 30
0.0
 10
1688.49245477822
 20
851.6236933803157
 30
0.0
  0
SPLINE
  5
F1
330
1F
100
AcDbEntity
  8
Miura_Table_9580-01_2D
100
AcDbSpline
210
0.0
220
0.0
230
1.0
 70
    12
 71
     3
 72
    15
 73
    11
 74
     0
 42
0.0000000001
 43
0.0000000001
 40
-2.500401592028198
 40
-2.500401592028198
 40
-2.500401592028198
 40
-2.500401592028198
 40
-2.092447594524908
 40
-1.587472916212024
 40
-0.9787609925742227
 40
-0.6090244151814629
 40
0.0
 40
0.0
 40
0.0
 40
0.3719149623461165
 40
0.3719149623461165
 40
0.3719149623461165
 40
0.3719149623461165
 10
1980.802110436209
 20
1222.673247594383
 30
0.0
 41
1.0
 10
1980.78280804322
 20
1222.538632363092
 30
0.0
 41
1.0
 10
1980.749056462792
 20
1222.236118657216
 30
0.0
 41
1.0
 10
1980.713005718246
 20
1221.730123572156
 30
0.0
 41
1.0
 10
1980.689914455059
 20
1221.236172519398
 30
0.0
 41
1.0
 10
1980.66984230322
 20
1220.707396251717
 30
0.0
 41
1.0
 10
1980.658698030014
 20
1220.376788375022
 30
0.0
 41
1.0
 10
1980.651661586815
 20
1220.173902789893
 30
0.0
 41
1.0
 10
1980.647364604485
 20
1220.050005566561
 30
0.0
 41
0.9999990251576337
 10
1980.643303369089
 20
1219.920162005359
 30
0.0
 41
0.9999990251576337
 10
1980.637902218013
 20
1219.796308004319
 30
0.0
 41
1.0
  0
SPLINE
  5
F2
330
1F
100
AcDbEntity
  8
Miura_Table_9580-01_2D
100
AcDbSpline
210
0.0
220
0.0
230
1.0
 70
    12
 71
     2
 72
     6
 73
     3
 74
     0
 42
0.0000000001
 43
0.0000000001
 40
-0.8893486808566594
 40
-0.8893486808566594
 40
-0.8893486808566594
 40
0.0
 40
0.0
 40
0.0
 10
1980.637902218013
 20
1219.796308004319
 30
0.0
 41
1.0
 10
1980.613630913602
 20
1219.239741798365
 30
0.0
 41
0.9999953443438412
 10
1980.593694624784
 20
1218.795513207568
 30
0.0
 41
1.0
  0
SPLINE
  5
F3
330
1F
100
AcDbEntity
  8
Miura_Table_9580-01_2D
100
AcDbSpline
210
0.0
220
0.0
230
1.0
 70
     8
 71
     3
 72
    16
 73
    12
 74
     0
 42
0.0000000001
 43
0.0000000001
 40
-44.0809111380504
 40
-44.0809111380504
 40
-44.0809111380504
 40
-44.0809111380504
 40
-41.32262018863005
 40
-38.57568005800471
 40
-32.83955618066763
 40
-27.18774927002762
 40
-21.55559266881473
 40
-10.57964571019579
 40
-5.268782545111494
 40
-2.760660175474777
 40
0.0
 40
0.0
 40
0.0
 40
0.0
 10
1980.593694624784
 20
1218.795513207568
 30
0.0
 10
1980.552474365493
 20
1217.877026428753
 30
0.0
 10
1980.443188678043
 20
1216.044924884245
 30
0.0
 10
1980.09109327575
 20
1212.313873423883
 30
0.0
 10
1979.433735124383
 20
1207.646203103664
 30
0.0
 10
1978.300797988086
 20
1202.084201074584
 30
0.0
 10
1976.370699071412
 20
1194.916288497635
 30
0.0
 10
1973.814421146041
 20
1188.055535545184
 30
0.0
 10
1971.047410827513
 20
1182.430155017468
 30
0.0
 10
1969.327146172016
 20
1179.351213172569
 30
0.0
 10
1968.394090394223
 20
1177.82927193718
 30
0.0
 10
1967.910304210438
 20
1177.046653033869
 30
0.0
  0
SPLINE
  5
F4
330
1F
100
AcDbEntity
  8
Miura_Table_9580-01_2D
100
AcDbSpline
210
0.0
220
0.0
230
1.0
 70
     8
 71
     3
 72
    18
 73
    14
 74
     0
 42
0.0000000001
 43
0.0000000001
 40
-23.989786789493
 40
-23.989786789493
 40
-23.989786789493
 40
-23.989786789493
 40
-22.58263901442267
 40
-21.34373030388689
 40
-18.62944873608983
 40
-13.20000755298573
 40
-11.39409917538949
 40
-8.514888277655798
 40
-6.682465050476555
 40
-5.425659454196719
 40
-3.282334438373458
 40
-1.290606615411304
 40
0.0
 40
0.0
 40
0.0
 40
0.0
 10
1967.910304210438
 20
1177.046653033869
 30
0.0
 10
1967.663675406432
 20
1176.647682640365
 30
0.0
 10
1967.198442469974
 20
1175.898310318896
 30
0.0
 10
1966.232063795643
 20
1174.395353117098
 30
0.0
 10
1964.48667172744
 20
1171.799802107372
 30
0.0
 10
1962.526130922045
 20
1169.12330640557
 30
0.0
 10
1960.438748142903
 20
1166.475507661804
 30
0.0
 10
1959.052666925173
 20
1164.802320957997
 30
0.0
 10
1957.75808059265
 20
1163.29169023596
 30
0.0
 10
1956.612990024898
 20
1161.975997836907
 30
0.0
 10
1955.432216811571
 20
1160.621031593453
 30
0.0
 10
1954.249587575356
 20
1159.252698142176
 30
0.0
 10
1953.519456163967
 20
1158.408105621579
 30
0.0
 10
1953.237820161795
 20
1158.082900378041
 30
0.0
  0
SPLINE
  5
F5
330
1F
100
AcDbEntity
  8
Miura_Table_9580-01_2D
100
AcDbSpline
210
0.0
220
0.0
230
1.0
 70
    24
 71
     2
 72
     6
 73
     3
 74
     0
 42
0.0000000001
 43
0.0000000001
 40
-405.407916564433
 40
-405.407916564433
 40
-405.407916564433
 40
0.0
 40
0.0
 40
0.0
 10
1953.237820161796
 20
1158.082900378041
 30
0.0
 10
1820.536929852734
 20
1004.853110798923
 30
0.0
 10
1687.836039543672
 20
851.6233212198056
 30
0.0
  0
POLYLINE
  5
F6
330
1F
100
AcDbEntity
  8
Miura_Table_9580-01_2D
100
AcDb2dPolyline
 66
     1
 10
0.0
 20
0.0
 30
0.0
  0
VERTEX
  5
F7
330
F6
100
AcDbEntity
  8
Miura_Table_9580-01_2D
100
AcDbVertex
100
AcDb2dVertex
 10
1687.836039543672
 20
851.6233212198056
 30
0.0
  0
VERTEX
  5
F8
330
F6
100
AcDbEntity
  8
Miura_Table_9580-01_2D
100
AcDbVertex
100
AcDb2dVertex
 10
1732.504473655735
 20
851.6236449524949
 30
0.0
  0
SEQEND
  5
F9
330
F6
100
AcDbEntity
  8
Miura_Table_9580-01_2D
  0
SPLINE
  5
FA
330
1F
100
AcDbEntity
  8
Miura_Table_9580-01_2D
100
AcDbSpline
210
0.0
220
0.0
230
1.0
 70
    24
 71
     2
 72
     6
 73
     3
 74
     0
 42
0.0000000001
 43
0.0000000001
 40
-379.0828237665147
 40
-379.0828237665147
 40
-379.0828237665147
 40
0.0
 40
0.0
 40
0.0
 10
1732.504473655735
 20
851.6236449524949
 30
0.0
 10
1856.588454651935
 20
994.9034847026614
 30
0.0
 10
1980.672435648135
 20
1138.183324452828
 30
0.0
  0
SPLINE
  5
FB
330
1F
100
AcDbEntity
  8
Miura_Table_9580-01_2D
100
AcDbSpline
210
0.0
220
0.0
230
1.0
 70
     8
 71
     3
 72
    13
 73
     9
 74
     0
 42
0.0000000001
 43
0.0000000001
 40
0.0
 40
0.0
 40
0.0
 40
0.0
 40
0.0902184704601651
 40
0.1761896442498796
 40
0.3455632779639898
 40
0.4948657560424342
 40
0.556563220459395
 40
0.6273565859503734
 40
0.6273565859503734
 40
0.6273565859503734
 40
0.6273565859503734
 10
2030.36129034786
 20
851.623582155536
 30
0.0
 10
2030.391368032838
 20
851.6225256303171
 30
0.0
 10
2030.449934880203
 20
851.6173619510705
 30
0.0
 10
2030.562043302617
 20
851.5884442037575
 30
0.0
 10
2030.68219579214
 20
851.5242131898399
 30
0.0
 10
2030.769858654766
 20
851.4287305781284
 30
0.0
 10
2030.801709929629
 20
851.3388007217723
 30
0.0
 10
2030.802466654349
 20
851.2943104448436
 30
0.0
 10
2030.802455575717
 20
851.2707486025045
 30
0.0
  0
SPLINE
  5
FC
330
1F
100
AcDbEntity
  8
Miura_Table_9580-01_2D
100
AcDbSpline
210
0.0
220
0.0
230
1.0
 70
    24
 71
     2
 72
     6
 73
     3
 74
     0
 42
0.0000000001
 43
0.0000000001
 40
0.0
 40
0.0
 40
0.0
 40
0.3964465280210447
 40
0.3964465280210447
 40
0.3964465280210447
 10
2030.802455575717
 20
851.2707486025045
 30
0.0
 10
2030.802442192617
 20
851.0725253385828
 30
0.0
 10
2030.802428809518
 20
850.874302074661
 30
0.0
  0
SPLINE
  5
FD
330
1F
100
AcDbEntity
  8
Miura_Table_9580-01_2D
100
AcDbSpline
210
0.0
220
0.0
230
1.0
 70
     8
 71
     3
 72
    17
 73
    13
 74
     0
 42
0.0000000001
 43
0.0000000001
 40
0.0
 40
0.0
 40
0.0
 40
0.0
 40
0.0962064271533508
 40
0.1738289297854392
 40
0.3373064891879649
 40
0.5367070411386231
 40
0.7755987407383972
 40
1.076140845210532
 40
1.396849041230197
 40
1.692620935227627
 40
1.823404523223936
 40
1.966221085738845
 40
1.966221085738845
 40
1.966221085738845
 40
1.966221085738845
 10
2030.802428809518
 20
850.874302074661
 30
0.0
 10
2030.802512495445
 20
850.8422194495115
 30
0.0
 10
2030.802072982682
 20
850.7842837641433
 30
0.0
 10
2030.789371708511
 20
850.6722769934663
 30
0.0
 10
2030.74635588401
 20
850.5310202894273
 30
0.0
 10
2030.652477198552
 20
850.3530349561952
 30
0.0
 10
2030.510218440683
 20
850.1516120811889
 30
0.0
 10
2030.322381048989
 20
849.9345813555849
 30
0.0
 10
2030.104359387939
 20
849.7200538110553
 30
0.0
 10
2029.913684356123
 20
849.5594128989758
 30
0.0
 10
2029.759660495828
 20
849.4483676313625
 30
0.0
 10
2029.682644429878
 20
849.3994675981601
 30
0.0
 10
2029.642220495033
 20
849.3742892050057
 30
0.0
  0
SPLINE
  5
FE
330
1F
100
AcDbEntity
  8
Miura_Table_9580-01_2D
100
AcDbSpline
210
0.0
220
0.0
230
1.0
 70
    24
 71
     2
 72
     6
 73
     3
 74
     0
 42
0.0000000001
 43
0.0000000001
 40
0.0
 40
0.0
 40
0.0
 40
0.0002028258160686
 40
0.0002028258160686
 40
0.0002028258160686
 10
2029.642220495033
 20
849.3742892050057
 30
0.0
 10
2029.641891442814
 20
849.3740827701591
 30
0.0
 10
2029.641562390595
 20
849.3738763353126
 30
0.0
  0
SPLINE
  5
FF
330
1F
100
AcDbEntity
  8
Miura_Table_9580-01_2D
100
AcDbSpline
210
0.0
220
0.0
230
1.0
 70
     8
 71
     3
 72
    25
 73
    21
 74
     0
 42
0.0000000001
 43
0.0000000001
 40
0.0
 40
0.0
 40
0.0
 40
0.0
 40
3.199587773031225
 40
6.339228569859388
 40
12.50824278581488
 40
18.76926702610335
 40
21.92722116738235
 40
23.54279560344114
 40
24.35060102343449
 40
24.73612324148421
 40
24.93803802146848
 40
25.02982611215962
 40
25.08490533980845
 40
25.10555096506041
 40
25.11462558692914
 40
25.12056925615265
 40
25.12388541331136
 40
25.12423612731493
 40
25.12438763465248
 40
25.12589178241075
 40
25.12589178241075
 40
25.12589178241075
 40
25.12589178241075
 10
2029.641562390595
 20
849.3738763353126
 30
0.0
 10
2028.736598156345
 20
848.8084626458115
 30
0.0
 10
2026.904642997483
 20
847.7527724728488
 30
0.0
 10
2023.153044175078
 20
845.9278225969242
 30
0.0
 10
2018.264791123291
 20
844.148333933606
 30
0.0
 10
2013.171515820155
 20
843.0584851030869
 30
0.0
 10
2009.511766913671
 20
842.6689949798833
 30
0.0
 10
2007.653717394367
 20
842.5696265060647
 30
0.0
 10
2006.717700417538
 20
842.5450698098127
 30
0.0
 10
2006.252665535345
 20
842.5389755915699
 30
0.0
 10
2006.026260977017
 20
842.537535410321
 30
0.0
 10
2005.910003403155
 20
842.5371583010385
 30
0.0
 10
2005.854165779787
 20
842.5370780241583
 30
0.0
 10
2005.825899853512
 20
842.537057271619
 30
0.0
 10
2005.814011913853
 20
842.5370538615505
 30
0.0
 10
2005.807941874793
 20
842.5370526047345
 30
0.0
 10
2005.804564069073
 20
842.5370525453934
 30
0.0
 10
2005.803937043925
 20
842.537052385348
 30
0.0
 10
2005.803926507179
 20
842.5370524699449
 30
0.0
 10
2005.803163409268
 20
842.53705245057
 30
0.0
 10
2005.802675072791
 20
842.5370524530385
 30
0.0
  0
SPLINE
  5
100
330
1F
100
AcDbEntity
  8
Miura_Table_9580-01_2D
100
AcDbSpline
210
0.0
220
0.0
230
1.0
 70
     8
 71
     3
 72
    24
 73
    20
 74
     0
 42
0.0000000001
 43
0.0000000001
 40
0.0
 40
0.0
 40
0.0
 40
0.0
 40
0.0020036010011362
 40
0.0022547111983818
 40
0.0025058213949665
 40
0.0056257993940696
 40
0.01124053246391
 40
0.0196887687649597
 40
0.0391810618565542
 40
0.0782064054598164
 40
0.188361477556041
 40
0.3719392572807771
 40
0.7758219389144186
 40
1.546888493465523
 40
3.125770128968859
 40
6.302017912663969
 40
12.52633999462964
 40
18.76876323914056
 40
25.12624730574042
 40
25.12624730574042
 40
25.12624730574042
 40
25.12624730574042
 10
2005.802675072791
 20
842.5370524530385
 30
0.0
 10
2005.802005107854
 20
842.537052450627
 30
0.0
 10
2005.801055030574
 20
842.5370524784687
 30
0.0
 10
2005.80088246997
 20
842.537052387846
 30
0.0
 10
2005.800685067472
 20
842.5370525118876
 30
0.0
 10
2005.79683173702
 20
842.5370526774577
 30
0.0
 10
2005.791701197186
 20
842.5370535145591
 30
0.0
 10
2005.780054539933
 20
842.5370572406293
 30
0.0
 10
2005.758282558943
 20
842.5370711816645
 30
0.0
 10
2005.701557823276
 20
842.5371436549865
 30
0.0
 10
2005.59094024109
 20
842.5374713666613
 30
0.0
 10
2005.358251012424
 20
842.5389227064568
 30
0.0
 10
2004.905528850457
 20
842.5447228624294
 30
0.0
 10
2003.987823346477
 20
842.5685146954411
 30
0.0
 10
2002.148033338337
 20
842.6645258736837
 30
0.0
 10
1998.505995180326
 20
843.0470493423436
 30
0.0
 10
1993.393067368607
 20
844.1321517384717
 30
0.0
 10
1987.480119003342
 20
846.2766985694959
 30
0.0
 10
1983.76118326605
 20
848.2508527169273
 30
0.0
 10
1981.963259433682
 20
849.3739103344442
 30
0.0
  0
SPLINE
  5
101
330
1F
100
AcDbEntity
  8
Miura_Table_9580-01_2D
100
AcDbSpline
210
0.0
220
0.0
230
1.0
 70
     8
 71
     3
 72
    17
 73
    13
 74
     0
 42
0.0000000001
 43
0.0000000001
 40
0.0
 40
0.0
 40
0.0
 40
0.0
 40
0.1433371388019667
 40
0.27412170485795
 40
0.5698915548390706
 40
0.891163767339524
 40
1.191151497005545
 40
1.428512647803955
 40
1.62846324815081
 40
1.792814010234205
 40
1.870845827558682
 40
1.966221106772676
 40
1.966221106772676
 40
1.966221106772676
 40
1.966221106772676
 10
1981.963259433682
 20
849.3739103344442
 30
0.0
 10
1981.922080877019
 20
849.399557535814
 30
0.0
 10
1981.844923796718
 20
849.4485608702689
 30
0.0
 10
1981.690780099064
 20
849.5597350601981
 30
0.0
 10
1981.499987776373
 20
849.7205286599615
 30
0.0
 10
1981.282002862785
 20
849.9350969412224
 30
0.0
 10
1981.094545726788
 20
850.1517888766614
 30
0.0
 10
1980.952586105248
 20
850.3527868173426
 30
0.0
 10
1980.858621353534
 20
850.5306905047423
 30
0.0
 10
1980.815385629882
 20
850.6725229120102
 30
0.0
 10
1980.80280250727
 20
850.7847080267268
 30
0.0
 10
1980.802343815451
 20
850.8424852057271
 30
0.0
 10
1980.802444806258
 20
850.874302074661
 30
0.0
  0
SPLINE
  5
102
330
1F
100
AcDbEntity
  8
Miura_Table_9580-01_2D
100
AcDbSpline
210
0.0
220
0.0
230
1.0
 70
    24
 71
     2
 72
     6
 73
     3
 74
     0
 42
0.0000000001
 43
0.0000000001
 40
0.0
 40
0.0
 40
0.0
 40
0.3964465280210447
 40
0.3964465280210447
 40
0.3964465280210447
 10
1980.802444806258
 20
850.874302074661
 30
0.0
 10
1980.802431423159
 20
851.0725253385828
 30
0.0
 10
1980.802418040059
 20
851.2707486025045
 30
0.0
  0
SPLINE
  5
103
330
1F
100
AcDbEntity
  8
Miura_Table_9580-01_2D
100
AcDbSpline
210
0.0
220
0.0
230
1.0
 70
     8
 71
     3
 72
    12
 73
     8
 74
     0
 42
0.0000000001
 43
0.0000000001
 40
0.0
 40
0.0
 40
0.0
 40
0.0
 40
0.0709674213457879
 40
0.1335862693815868
 40
0.2813937667583465
 40
0.4525062216949927
 40
0.6273569207154127
 40
0.6273569207154127
 40
0.6273569207154127
 40
0.6273569207154127
 10
1980.802418040059
 20
851.2707486025045
 30
0.0
 10
1980.802308708206
 20
851.2943673444827
 30
0.0
 10
1980.803291964992
 20
851.339223316899
 30
0.0
 10
1980.835201160719
 20
851.4290029205708
 30
0.0
 10
1980.923155733537
 20
851.524455683226
 30
0.0
 10
1981.070018979444
 20
851.6031627957107
 30
0.0
 10
1981.185410482032
 20
851.6220966404478
 30
0.0
 10
1981.243583577615
 20
851.6235756734443
 30
0.0
  0
SPLINE
  5
104
330
1F
100
AcDbEntity
  8
Miura_Table_9580-01_2D
100
AcDbSpline
210
0.0
220
0.0
230
1.0
 70
    12
 71
     3
 72
    12
 73
     8
 74
     0
 42
0.0000000001
 43
0.0000000001
 40
-0.5262507170806857
 40
-0.5262507170806857
 40
-0.5262507170806857
 40
-0.5262507170806857
 40
-0.5145170103963779
 40
-0.5145170103963779
 40
-0.2542829628112115
 40
-0.2542829628112115
 40
-0.0317448945959232
 40
-0.0317448945959232
 40
-0.0317448945959232
 40
-0.0317448945959232
 10
2026.929195963129
 20
1219.074553503297
 30
0.0
 41
1.0
 10
2026.931672641098
 20
1219.078990241262
 30
0.0
 41
1.0
 10
2026.934163978519
 20
1219.083359177803
 30
0.0
 41
1.0
 10
2026.992222835858
 20
1219.183007168897
 30
0.0
 41
1.0
 10
2027.051336904678
 20
1219.243135629093
 30
0.0
 41
1.0
 10
2027.154893145591
 20
1219.310954323618
 30
0.0
 41
1.0
 10
2027.200494365773
 20
1219.325430140245
 30
0.0
 41
1.0
 10
2027.244015299077
 20
1219.328558796693
 30
0.0
 41
1.0
  0
SPLINE
  5
105
330
1F
100
AcDbEntity
  8
Miura_Table_9580-01_2D
100
AcDbSpline
210
0.0
220
0.0
230
1.0
 70
    12
 71
     3
 72
    18
 73
    14
 74
     0
 42
0.0000000001
 43
0.0000000001
 40
-17.08061118246446
 40
-17.08061118246446
 40
-17.08061118246446
 40
-17.08061118246446
 40
-15.57895392647034
 40
-15.57895392647034
 40
-15.57895392647034
 40
-11.24807156559795
 40
-11.24807156559795
 40
-11.24807156559795
 40
-8.873594413233326
 40
-6.279800604855796
 40
-3.187801552011507
 40
-1.394045745757029
 40
0.0
 40
0.0
 40
0.0
 40
0.0
 10
2026.296237314859
 20
1219.328647173279
 30
0.0
 41
1.0
 10
2026.85008645348
 20
1219.309959735908
 30
0.0
 41
0.8207490813200228
 10
2027.242273624181
 20
1218.918274327995
 30
0.0
 41
0.8207490813200228
 10
2027.261899095029
 20
1218.364220857144
 30
0.0
 41
1.0
 10
2027.313314515953
 20
1216.921182569114
 30
0.0
 41
0.9999156577956789
 10
2027.387689248769
 20
1215.479062430049
 30
0.0
 41
0.9999156577956789
 10
2027.48500447469
 20
1214.038225334723
 30
0.0
 41
1.0
 10
2027.538246417462
 20
1213.247877200099
 30
0.0
 41
1.0
 10
2027.662321222587
 20
1211.596393431111
 30
0.0
 41
1.0
 10
2027.902432516267
 20
1208.920329446839
 30
0.0
 41
1.0
 10
2028.153472463443
 20
1206.439789447333
 30
0.0
 41
1.0
 10
2028.377453975614
 20
1204.358536592798
 30
0.0
 41
1.0
 10
2028.495675976721
 20
1203.300395718466
 30
0.0
 41
1.0
 10
2028.549443777637
 20
1202.83883281523
 30
0.0
 41
1.0
  0
SPLINE
  5
106
330
1F
100
AcDbEntity
  8
Miura_Table_9580-01_2D
100
AcDbSpline
210
0.0
220
0.0
230
1.0
 70
     8
 71
     3
 72
    16
 73
    12
 74
     0
 42
0.0000000001
 43
0.0000000001
 40
-33.3642801434906
 40
-33.3642801434906
 40
-33.3642801434906
 40
-33.3642801434906
 40
-24.17426881783292
 40
-19.70973193739507
 40
-17.41415730793448
 40
-12.69286067967022
 40
-10.39643749466709
 40
-6.695123544693319
 40
-3.023047667395003
 40
-1.441026840298903
 40
0.0
 40
0.0
 40
0.0
 40
0.0
 10
2028.549443777636
 20
1202.83883281523
 30
0.0
 10
2028.9039029855
 20
1199.7960224664
 30
0.0
 10
2029.513026109739
 20
1195.284977570274
 30
0.0
 10
2030.317144852678
 20
1190.029425115398
 30
0.0
 10
2030.914654397882
 20
1186.24919604181
 30
0.0
 10
2031.408441565033
 20
1183.184304968318
 30
0.0
 10
2031.963869146973
 20
1179.654697892443
 30
0.0
 10
2032.441772625529
 20
1176.467026240399
 30
0.0
 10
2032.826307019099
 20
1173.506453447156
 30
0.0
 10
2033.053318468208
 20
1171.286163017282
 30
0.0
 10
2033.133958502724
 20
1170.281666493979
 30
0.0
 10
2033.166296214646
 20
1169.802189912408
 30
0.0
  0
SPLINE
  5
107
330
1F
100
AcDbEntity
  8
Miura_Table_9580-01_2D
100
AcDbSpline
210
0.0
220
0.0
230
1.0
 70
     8
 71
     3
 72
    12
 73
     8
 74
     0
 42
0.0000000001
 43
0.0000000001
 40
-2.866008512548971
 40
-2.866008512548971
 40
-2.866008512548971
 40
-2.866008512548971
 40
-2.1803500891602
 40
-1.316467333291305
 40
-0.6436630852735566
 40
-0.3236325452860642
 40
0.0
 40
0.0
 40
0.0
 40
0.0
 10
2033.166296214646
 20
1169.802189912408
 30
0.0
 10
2033.181834859121
 20
1169.573942598151
 30
0.0
 10
2033.209434236435
 20
1169.058160015944
 30
0.0
 10
2033.241180145443
 20
1168.318040918927
 30
0.0
 10
2033.258590132943
 20
1167.699361993879
 30
0.0
 10
2033.264432020287
 20
1167.26056749805
 30
0.0
 10
2033.265656896315
 20
1167.046020088405
 30
0.0
 10
2033.265659089217
 20
1166.938129734872
 30
0.0
  0
SPLINE
  5
108
330
1F
100
AcDbEntity
  8
Miura_Table_9580-01_2D
100
AcDbSpline
210
0.0
220
0.0
230
1.0
 70
     8
 71
     3
 72
    13
 73
     9
 74
     0
 42
0.0000000001
 43
0.0000000001
 40
-8.067492795701002
 40
-8.067492795701002
 40
-8.067492795701002
 40
-8.067492795701002
 40
-6.929436622567084
 40
-5.933962300934526
 40
-4.0143213514352
 40
-2.037649979843423
 40
-1.015652899145925
 40
0.0
 40
0.0
 40
0.0
 40
0.0
 10
2033.265659089217
 20
1166.938129734872
 30
0.0
 10
2033.266312383259
 20
1166.558786753807
 30
0.0
 10
2033.252624802077
 20
1165.847409142216
 30
0.0
 10
2033.133999153555
 20
1164.500628472447
 30
0.0
 10
2032.789223759583
 20
1162.900735558531
 30
0.0
 10
2032.166804881235
 20
1161.37722784011
 30
0.0
 10
2031.51170945617
 20
1160.209608613041
 30
0.0
 10
2031.131673105171
 20
1159.645679019192
 30
0.0
 10
2030.931536761742
 20
1159.372735716731
 30
0.0
  0
SPLINE
  5
109
330
1F
100
AcDbEntity
  8
Miura_Table_9580-01_2D
100
AcDbSpline
210
0.0
220
0.0
230
1.0
 70
     8
 71
     3
 72
    13
 73
     9
 74
     0
 42
0.0000000001
 43
0.0000000001
 40
0.0
 40
0.0
 40
0.0
 40
0.0
 40
0.0787536068012881
 40
0.1449423458634473
 40
0.266120321626831
 40
0.3853723078620238
 40
0.4472243187928732
 40
0.5284135023430945
 40
0.5284135023430945
 40
0.5284135023430945
 40
0.5284135023430945
 10
2279.580524418847
 20
851.6239213497831
 30
0.0
 10
2279.554335769507
 20
851.6233580906444
 30
0.0
 10
2279.505815934796
 20
851.6188650703484
 30
0.0
 10
2279.421185050516
 20
851.5913086527776
 30
0.0
 10
2279.343986167747
 20
851.5143533330979
 30
0.0
 10
2279.339109408422
 20
851.4068841098047
 30
0.0
 10
2279.378390504654
 20
851.3278477374838
 30
0.0
 10
2279.408935322753
 20
851.2910267244815
 30
0.0
 10
2279.426869303703
 20
851.2707350533399
 30
0.0
  0
SPLINE
  5
10A
330
1F
100
AcDbEntity
  8
Miura_Table_9580-01_2D
100
AcDbSpline
210
0.0
220
0.0
230
1.0
 70
    24
 71
     2
 72
     6
 73
     3
 74
     0
 42
0.0000000001
 43
0.0000000001
 40
0.0
 40
0.0
 40
0.0
 40
0.524413613475097
 40
0.524413613475097
 40
0.524413613475097
 10
2279.426869303703
 20
851.2707350533399
 30
0.0
 10
2279.598623764865
 20
851.0724101783859
 30
0.0
 10
2279.770378226027
 20
850.8740853034319
 30
0.0
  0
SPLINE
  5
10B
330
1F
100
AcDbEntity
  8
Miura_Table_9580-01_2D
100
AcDbSpline
210
0.0
220
0.0
230
1.0
 70
     8
 71
     3
 72
    12
 73
     8
 74
     0
 42
0.0000000001
 43
0.0000000001
 40
0.0
 40
0.0
 40
0.0
 40
0.0
 40
0.2152508561583033
 40
0.4345163837059823
 40
1.014949707012151
 40
1.738429140534348
 40
2.240363334908873
 40
2.240363334908873
 40
2.240363334908873
 40
2.240363334908873
 10
2279.770378226027
 20
850.8740853034319
 30
0.0
 10
2279.81741736608
 20
850.8195365690269
 30
0.0
 10
2279.913255691856
 20
850.7108805561497
 30
0.0
 10
2280.149611979377
 20
850.4686965715216
 30
0.0
 10
2280.521617507271
 20
850.1229463256047
 30
0.0
 10
2280.975419115407
 20
849.7274410649554
 30
0.0
 10
2281.293631086042
 20
849.4710395305945
 30
0.0
 10
2281.430271535923
 20
849.3742781272883
 30
0.0
  0
SPLINE
  5
10C
330
1F
100
AcDbEntity
  8
Miura_Table_9580-01_2D
100
AcDbSpline
210
0.0
220
0.0
230
1.0
 70
     8
 71
     3
 72
    12
 73
     8
 74
     0
 42
0.0000000001
 43
0.0000000001
 40
0.0
 40
0.0
 40
0.0
 40
0.0
 40
2.849423647238892
 40
5.573258475154479
 40
11.17057419198277
 40
16.6544972940824
 40
22.23406149512204
 40
22.23406149512204
 40
22.23406149512204
 40
22.23406149512204
 10
2281.430271535923
 20
849.3742781272883
 30
0.0
 10
2282.202502303702
 20
848.8211903713368
 30
0.0
 10
2283.754964271714
 20
847.7983245019939
 30
0.0
 10
2287.011398216727
 20
845.9875339022617
 30
0.0
 10
2291.273723952541
 20
844.217206542123
 30
0.0
 10
2296.682373021869
 20
842.888375225057
 30
0.0
 10
2300.366613986879
 20
842.5611613633846
 30
0.0
 10
2302.226333568795
 20
842.5394392927221
 30
0.0
  0
SPLINE
  5
10D
330
1F
100
AcDbEntity
  8
Miura_Table_9580-01_2D
100
AcDbSpline
210
0.0
220
0.0
230
1.0
 70
     8
 71
     5
 72
    12
 73
     6
 74
     0
 42
0.0000000001
 43
0.0000000001
 40
-1.0
 40
-1.0
 40
-1.0
 40
-1.0
 40
-1.0
 40
-1.0
 40
0.0
 40
0.0
 40
0.0
 40
0.0
 40
0.0
 40
0.0
 10
2302.226333568795
 20
842.5394392927221
 30
0.0
 10
2302.309103792896
 20
842.5384725122062
 30
0.0
 10
2302.391876779925
 20
842.5377422778388
 30
0.0
 10
2302.474654310667
 20
842.5373019103749
 30
0.0
 10
2302.55743016662
 20
842.5370572691888
 30
0.0
 10
2302.640206036528
 20
842.5370524524083
 30
0.0
  0
SPLINE
  5
10E
330
1F
100
AcDbEntity
  8
Miura_Table_9580-01_2D
100
AcDbSpline
210
0.0
220
0.0
230
1.0
 70
     8
 71
     3
 72
    12
 73
     8
 74
     0
 42
0.0000000001
 43
0.0000000001
 40
0.0
 40
0.0
 40
0.0
 40
0.0
 40
2.782398956976484
 40
5.60255636646087
 40
11.31396921066574
 40
16.96595331393149
 40
22.64829073387322
 40
22.64829073387322
 40
22.64829073387322
 40
22.64829073387322
 10
2302.640206036528
 20
842.5370524524083
 30
0.0
 10
2303.567678202983
 20
842.5369984822119
 30
0.0
 10
2305.435160112129
 20
842.609640268362
 30
0.0
 10
2309.184051580155
 20
843.0453575484328
 30
0.0
 10
2313.798226281745
 20
844.1416067141515
 30
0.0
 10
2319.0694469782
 20
846.3080274317608
 30
0.0
 10
2322.310232603543
 20
848.2719366532624
 30
0.0
 10
2323.850500963232
 20
849.3743362312666
 30
0.0
  0
SPLINE
  5
10F
330
1F
100
AcDbEntity
  8
Miura_Table_9580-01_2D
100
AcDbSpline
210
0.0
220
0.0
230
1.0
 70
     8
 71
     3
 72
    16
 73
    12
 74
     0
 42
0.0000000001
 43
0.0000000001
 40
0.0
 40
0.0
 40
0.0
 40
0.0
 40
0.1449268675943032
 40
0.2673386247060249
 40
0.5163843678365243
 40
0.7646474073394522
 40
0.9969847930951103
 40
1.194773719318494
 40
1.376962800151374
 40
1.556234553971886
 40
1.789638013214852
 40
1.789638013214852
 40
1.789638013214852
 40
1.789638013214852
 10
2323.850500963232
 20
849.3743362312666
 30
0.0
 10
2323.889875723756
 20
849.402427941536
 30
0.0
 10
2323.96198644776
 20
849.4548664830788
 30
0.0
 10
2324.092557994252
 20
849.5672878752443
 30
0.0
 10
2324.230947932889
 20
849.7216412358327
 30
0.0
 10
2324.360808180435
 20
849.9284012708522
 30
0.0
 10
2324.442947614073
 20
850.1404496585817
 30
0.0
 10
2324.469932230446
 20
850.3445344737518
 30
0.0
 10
2324.440563422471
 20
850.530854970383
 30
0.0
 10
2324.35202887296
 20
850.710418217091
 30
0.0
 10
2324.26226310787
 20
850.8155506826977
 30
0.0
 10
2324.211235586472
 20
850.8742575299648
 30
0.0
  0
SPLINE
  5
110
330
1F
100
AcDbEntity
  8
Miura_Table_9580-01_2D
100
AcDbSpline
210
0.0
220
0.0
230
1.0
 70
    24
 71
     2
 72
     6
 73
     3
 74
     0
 42
0.0000000001
 43
0.0000000001
 40
0.0
 40
0.0
 40
0.0
 40
0.5244495011186676
 40
0.5244495011186676
 40
0.5244495011186676
 10
2324.211235586472
 20
850.8742575299648
 30
0.0
 10
2324.039487220808
 20
851.0725762102837
 30
0.0
 10
2323.867738855143
 20
851.2708948906027
 30
0.0
  0
SPLINE
  5
111
330
1F
100
AcDbEntity
  8
Miura_Table_9580-01_2D
100
AcDbSpline
210
0.0
220
0.0
230
1.0
 70
     8
 71
     3
 72
    12
 73
     8
 74
     0
 42
0.0000000001
 43
0.0000000001
 40
0.0
 40
0.0
 40
0.0
 40
0.0
 40
0.089002379783791
 40
0.1797960093880787
 40
0.4111935266141908
 40
0.6556287843907624
 40
0.8529822444616082
 40
0.8529822444616082
 40
0.8529822444616082
 40
0.8529822444616082
 10
2323.867738855143
 20
851.2708948906027
 30
0.0
 10
2323.848426893308
 20
851.2936226954566
 30
0.0
 10
2323.807633216054
 20
851.3377507554449
 30
0.0
 10
2323.698956574855
 20
851.4220032729472
 30
0.0
 10
2323.53243539282
 20
851.5122604515575
 30
0.0
 10
2323.322928411297
 20
851.5940608005615
 30
0.0
 10
2323.177409049391
 20
851.6219096490452
 30
0.0
 10
2323.111518800419
 20
851.6236933803157
 30
0.0
  0
SPLINE
  5
112
330
1F
100
AcDbEntity
  8
Miura_Table_9580-01_2D
100
AcDbSpline
210
0.0
220
0.0
230
1.0
 70
    12
 71
     3
 72
    15
 73
    11
 74
     0
 42
0.0000000001
 43
0.0000000001
 40
-2.500401592028198
 40
-2.500401592028198
 40
-2.500401592028198
 40
-2.500401592028198
 40
-2.092447594524908
 40
-1.587472916212024
 40
-0.9787609925742227
 40
-0.6090244151814629
 40
0.0
 40
0.0
 40
0.0
 40
0.3719149623461165
 40
0.3719149623461165
 40
0.3719149623461165
 40
0.3719149623461165
 10
2030.80186314243
 20
1222.673247594383
 30
0.0
 41
1.0
 10
2030.821165535418
 20
1222.538632363092
 30
0.0
 41
1.0
 10
2030.854917115847
 20
1222.236118657216
 30
0.0
 41
1.0
 10
2030.890967860393
 20
1221.730123572156
 30
0.0
 41
1.0
 10
2030.91405912358
 20
1221.236172519398
 30
0.0
 41
1.0
 10
2030.934131275419
 20
1220.707396251717
 30
0.0
 41
1.0
 10
2030.945275548625
 20
1220.376788375022
 30
0.0
 41
1.0
 10
2030.952311991824
 20
1220.173902789893
 30
0.0
 41
1.0
 10
2030.956608974154
 20
1220.050005566561
 30
0.0
 41
0.9999990251576337
 10
2030.96067020955
 20
1219.920162005359
 30
0.0
 41
0.9999990251576337
 10
2030.966071360626
 20
1219.796308004319
 30
0.0
 41
1.0
  0
SPLINE
  5
113
330
1F
100
AcDbEntity
  8
Miura_Table_9580-01_2D
100
AcDbSpline
210
0.0
220
0.0
230
1.0
 70
    12
 71
     2
 72
     6
 73
     3
 74
     0
 42
0.0000000001
 43
0.0000000001
 40
-0.8893486808566594
 40
-0.8893486808566594
 40
-0.8893486808566594
 40
0.0
 40
0.0
 40
0.0
 10
2030.966071360626
 20
1219.796308004319
 30
0.0
 41
1.0
 10
2030.990342665038
 20
1219.239741798365
 30
0.0
 41
0.9999953443438412
 10
2031.010278953855
 20
1218.795513207568
 30
0.0
 41
1.0
  0
SPLINE
  5
114
330
1F
100
AcDbEntity
  8
Miura_Table_9580-01_2D
100
AcDbSpline
210
0.0
220
0.0
230
1.0
 70
     8
 71
     3
 72
    16
 73
    12
 74
     0
 42
0.0000000001
 43
0.0000000001
 40
-44.0809111380504
 40
-44.0809111380504
 40
-44.0809111380504
 40
-44.0809111380504
 40
-41.32262018863005
 40
-38.57568005800471
 40
-32.83955618066763
 40
-27.18774927002762
 40
-21.55559266881473
 40
-10.57964571019579
 40
-5.268782545111494
 40
-2.760660175474777
 40
0.0
 40
0.0
 40
0.0
 40
0.0
 10
2031.010278953855
 20
1218.795513207568
 30
0.0
 10
2031.051499213146
 20
1217.877026428753
 30
0.0
 10
2031.160784900596
 20
1216.044924884245
 30
0.0
 10
2031.512880302889
 20
1212.313873423883
 30
0.0
 10
2032.170238454255
 20
1207.646203103664
 30
0.0
 10
2033.303175590553
 20
1202.084201074584
 30
0.0
 10
2035.233274507227
 20
1194.916288497635
 30
0.0
 10
2037.789552432598
 20
1188.055535545184
 30
0.0
 10
2040.556562751126
 20
1182.430155017468
 30
0.0
 10
2042.276827406622
 20
1179.351213172569
 30
0.0
 10
2043.209883184416
 20
1177.82927193718
 30
0.0
 10
2043.693669368201
 20
1177.046653033869
 30
0.0
  0
SPLINE
  5
115
330
1F
100
AcDbEntity
  8
Miura_Table_9580-01_2D
100
AcDbSpline
210
0.0
220
0.0
230
1.0
 70
     8
 71
     3
 72
    18
 73
    14
 74
     0
 42
0.0000000001
 43
0.0000000001
 40
-23.989786789493
 40
-23.989786789493
 40
-23.989786789493
 40
-23.989786789493
 40
-22.58263901442267
 40
-21.34373030388689
 40
-18.62944873608983
 40
-13.20000755298573
 40
-11.39409917538949
 40
-8.514888277655798
 40
-6.682465050476555
 40
-5.425659454196719
 40
-3.282334438373458
 40
-1.290606615411304
 40
0.0
 40
0.0
 40
0.0
 40
0.0
 10
2043.693669368201
 20
1177.046653033869
 30
0.0
 10
2043.940298172207
 20
1176.647682640365
 30
0.0
 10
2044.405531108665
 20
1175.898310318896
 30
0.0
 10
2045.371909782996
 20
1174.395353117098
 30
0.0
 10
2047.117301851199
 20
1171.799802107372
 30
0.0
 10
2049.077842656594
 20
1169.12330640557
 30
0.0
 10
2051.165225435736
 20
1166.475507661804
 30
0.0
 10
2052.551306653466
 20
1164.802320957997
 30
0.0
 10
2053.845892985988
 20
1163.29169023596
 30
0.0
 10
2054.990983553741
 20
1161.975997836907
 30
0.0
 10
2056.171756767068
 20
1160.621031593453
 30
0.0
 10
2057.354386003283
 20
1159.252698142176
 30
0.0
 10
2058.084517414672
 20
1158.408105621579
 30
0.0
 10
2058.366153416844
 20
1158.082900378041
 30
0.0
  0
SPLINE
  5
116
330
1F
100
AcDbEntity
  8
Miura_Table_9580-01_2D
100
AcDbSpline
210
0.0
220
0.0
230
1.0
 70
    24
 71
     2
 72
     6
 73
     3
 74
     0
 42
0.0000000001
 43
0.0000000001
 40
-405.407916564433
 40
-405.407916564433
 40
-405.407916564433
 40
0.0
 40
0.0
 40
0.0
 10
2058.366153416843
 20
1158.082900378041
 30
0.0
 10
2191.067043725905
 20
1004.853110798923
 30
0.0
 10
2323.767934034967
 20
851.6233212198056
 30
0.0
  0
POLYLINE
  5
117
330
1F
100
AcDbEntity
  8
Miura_Table_9580-01_2D
100
AcDb2dPolyline
 66
     1
 10
0.0
 20
0.0
 30
0.0
  0
VERTEX
  5
118
330
117
100
AcDbEntity
  8
Miura_Table_9580-01_2D
100
AcDbVertex
100
AcDb2dVertex
 10
2323.767934034967
 20
851.6233212198056
 30
0.0
  0
VERTEX
  5
119
330
117
100
AcDbEntity
  8
Miura_Table_9580-01_2D
100
AcDbVertex
100
AcDb2dVertex
 10
2279.099499922904
 20
851.6236449524949
 30
0.0
  0
SEQEND
  5
11A
330
117
100
AcDbEntity
  8
Miura_Table_9580-01_2D
  0
SPLINE
  5
11B
330
1F
100
AcDbEntity
  8
Miura_Table_9580-01_2D
100
AcDbSpline
210
0.0
220
0.0
230
1.0
 70
    24
 71
     2
 72
     6
 73
     3
 74
     0
 42
0.0000000001
 43
0.0000000001
 40
-379.0828237665147
 40
-379.0828237665147
 40
-379.0828237665147
 40
0.0
 40
0.0
 40
0.0
 10
2279.099499922904
 20
851.6236449524949
 30
0.0
 10
2155.015518926704
 20
994.9034847026614
 30
0.0
 10
2030.931537930504
 20
1138.183324452828
 30
0.0
  0
SPLINE
  5
11C
330
1F
100
AcDbEntity
  8
Miura_Table_9580-01_2D
100
AcDbSpline
210
0.0
220
0.0
230
1.0
 70
    12
 71
     2
 72
     6
 73
     3
 74
     0
 42
0.0000000001
 43
0.0000000001
 40
0.0
 40
0.0
 40
0.0
 40
3.028274426341321
 40
3.028274426341321
 40
3.028274426341321
 10
1980.72733661357
 20
1169.966804393323
 30
0.0
 41
1.0
 10
1980.674981610851
 20
1168.453435923506
 30
0.0
 41
0.999864696217075
 10
1980.672436809421
 20
1166.939164251799
 30
0.0
 41
1.0
  0
SPLINE
  5
11D
330
1F
100
AcDbEntity
  8
Miura_Table_9580-01_2D
100
AcDbSpline
210
0.0
220
0.0
230
1.0
 70
     8
 71
     3
 72
     8
 73
     4
 74
     0
 42
0.0000000001
 43
0.0000000001
 40
-17.56166272600342
 40
-17.56166272600342
 40
-17.56166272600342
 40
-17.56166272600342
 40
0.0
 40
0.0
 40
0.0
 40
0.0
 10
1980.672436809421
 20
1166.939164251799
 30
0.0
 10
1980.672436820534
 20
1161.085276676464
 30
0.0
 10
1980.672435648135
 20
1155.139635365641
 30
0.0
 10
1980.672435648135
 20
1149.285747790306
 30
0.0
  0
SPLINE
  5
11E
330
1F
100
AcDbEntity
  8
Miura_Table_9580-01_2D
100
AcDbSpline
210
0.0
220
0.0
230
1.0
 70
    24
 71
     2
 72
     6
 73
     3
 74
     0
 42
0.0000000001
 43
0.0000000001
 40
-297.6614457198009
 40
-297.6614457198009
 40
-297.6614457198009
 40
0.0
 40
0.0
 40
0.0
 10
1980.672435648135
 20
1149.285747790306
 30
0.0
 10
1980.672435648135
 20
1000.455024930406
 30
0.0
 10
1980.672435648135
 20
851.6243020705053
 30
0.0
  0
POLYLINE
  5
11F
330
1F
100
AcDbEntity
  8
Miura_Table_9580-01_2D
100
AcDb2dPolyline
 66
     1
 10
0.0
 20
0.0
 30
0.0
  0
VERTEX
  5
120
330
11F
100
AcDbEntity
  8
Miura_Table_9580-01_2D
100
AcDbVertex
100
AcDb2dVertex
 10
1980.672435648135
 20
851.6243020705053
 30
0.0
  0
VERTEX
  5
121
330
11F
100
AcDbEntity
  8
Miura_Table_9580-01_2D
100
AcDbVertex
100
AcDb2dVertex
 10
2030.931537930504
 20
851.6243020705053
 30
0.0
  0
SEQEND
  5
122
330
11F
100
AcDbEntity
  8
Miura_Table_9580-01_2D
  0
SPLINE
  5
123
330
1F
100
AcDbEntity
  8
Miura_Table_9580-01_2D
100
AcDbSpline
210
0.0
220
0.0
230
1.0
 70
    24
 71
     2
 72
     6
 73
     3
 74
     0
 42
0.0000000001
 43
0.0000000001
 40
0.0
 40
0.0
 40
0.0
 40
297.6614457198009
 40
297.6614457198009
 40
297.6614457198009
 10
2030.931537930504
 20
851.6243020705053
 30
0.0
 10
2030.931537930504
 20
1000.455024930406
 30
0.0
 10
2030.931537930504
 20
1149.285747790306
 30
0.0
  0
SPLINE
  5
124
330
1F
100
AcDbEntity
  8
Miura_Table_9580-01_2D
100
AcDbSpline
210
0.0
220
0.0
230
1.0
 70
     8
 71
     3
 72
     8
 73
     4
 74
     0
 42
0.0000000001
 43
0.0000000001
 40
0.0
 40
0.0
 40
0.0
 40
0.0
 40
17.56166272600342
 40
17.56166272600342
 40
17.56166272600342
 40
17.56166272600342
 10
2030.931537930504
 20
1149.285747790306
 30
0.0
 10
2030.931537930504
 20
1155.139635365641
 30
0.0
 10
2030.931536758105
 20
1161.085276676464
 30
0.0
 10
2030.931536769218
 20
1166.939164251799
 30
0.0
  0
SPLINE
  5
125
330
1F
100
AcDbEntity
  8
Miura_Table_9580-01_2D
100
AcDbSpline
210
0.0
220
0.0
230
1.0
 70
    12
 71
     2
 72
     6
 73
     3
 74
     0
 42
0.0000000001
 43
0.0000000001
 40
-3.028274426341321
 40
-3.028274426341321
 40
-3.028274426341321
 40
0.0
 40
0.0
 40
0.0
 10
2030.931536769218
 20
1166.939164251799
 30
0.0
 41
1.0
 10
2030.928991967788
 20
1168.453435923506
 30
0.0
 41
0.999864696217075
 10
2030.876636965069
 20
1169.966804393323
 30
0.0
 41
1.0
  0
POLYLINE
  5
126
330
1F
100
AcDbEntity
  8
Miura_Table_9580-01_2D
100
AcDb2dPolyline
 66
     1
 10
0.0
 20
0.0
 30
0.0
  0
VERTEX
  5
127
330
126
100
AcDbEntity
  8
Miura_Table_9580-01_2D
100
AcDbVertex
100
AcDb2dVertex
 10
-349.9369911963566
 20
1572.537243236149
 30
0.0
  0
VERTEX
  5
128
330
126
100
AcDbEntity
  8
Miura_Table_9580-01_2D
100
AcDbVertex
100
AcDb2dVertex
 10
350.0630088036434
 20
1572.537243236149
 30
0.0
  0
VERTEX
  5
129
330
126
100
AcDbEntity
  8
Miura_Table_9580-01_2D
100
AcDbVertex
100
AcDb2dVertex
 10
350.0630088036434
 20
1582.537243236149
 30
0.0
  0
VERTEX
  5
12A
330
126
100
AcDbEntity
  8
Miura_Table_9580-01_2D
100
AcDbVertex
100
AcDb2dVertex
 10
-349.9369911963566
 20
1582.537243236149
 30
0.0
  0
VERTEX
  5
12B
330
126
100
AcDbEntity
  8
Miura_Table_9580-01_2D
100
AcDbVertex
100
AcDb2dVertex
 10
-349.9369911963566
 20
1572.537243236149
 30
0.0
  0
SEQEND
  5
12C
330
126
100
AcDbEntity
  8
Miura_Table_9580-01_2D
  0
POLYLINE
  5
12D
330
1F
100
AcDbEntity
  8
Miura_Table_9580-01_2D
100
AcDb2dPolyline
 66
     1
 10
0.0
 20
0.0
 30
0.0
  0
VERTEX
  5
12E
330
12D
100
AcDbEntity
  8
Miura_Table_9580-01_2D
100
AcDbVertex
100
AcDb2dVertex
 10
677.6751811845157
 20
1572.537243236149
 30
0.0
  0
VERTEX
  5
12F
330
12D
100
AcDbEntity
  8
Miura_Table_9580-01_2D
100
AcDbVertex
100
AcDb2dVertex
 10
1377.675181184516
 20
1572.537243236149
 30
0.0
  0
VERTEX
  5
130
330
12D
100
AcDbEntity
  8
Miura_Table_9580-01_2D
100
AcDbVertex
100
AcDb2dVertex
 10
1377.675181184516
 20
1582.537243236149
 30
0.0
  0
VERTEX
  5
131
330
12D
100
AcDbEntity
  8
Miura_Table_9580-01_2D
100
AcDbVertex
100
AcDb2dVertex
 10
677.6751811845157
 20
1582.537243236149
 30
0.0
  0
VERTEX
  5
132
330
12D
100
AcDbEntity
  8
Miura_Table_9580-01_2D
100
AcDbVertex
100
AcDb2dVertex
 10
677.6751811845157
 20
1572.537243236149
 30
0.0
  0
SEQEND
  5
133
330
12D
100
AcDbEntity
  8
Miura_Table_9580-01_2D
  0
POLYLINE
  5
134
330
1F
100
AcDbEntity
  8
Miura_Table_9580-01_2D
100
AcDb2dPolyline
 66
     1
 10
0.0
 20
0.0
 30
0.0
  0
VERTEX
  5
135
330
134
100
AcDbEntity
  8
Miura_Table_9580-01_2D
100
AcDbVertex
100
AcDb2dVertex
 10
1655.802436807888
 20
1572.537243236149
 30
0.0
  0
VERTEX
  5
136
330
134
100
AcDbEntity
  8
Miura_Table_9580-01_2D
100
AcDbVertex
100
AcDb2dVertex
 10
2355.802436807888
 20
1572.537243236149
 30
0.0
  0
VERTEX
  5
137
330
134
100
AcDbEntity
  8
Miura_Table_9580-01_2D
100
AcDbVertex
100
AcDb2dVertex
 10
2355.802436807888
 20
1582.537243236149
 30
0.0
  0
VERTEX
  5
138
330
134
100
AcDbEntity
  8
Miura_Table_9580-01_2D
100
AcDbVertex
100
AcDb2dVertex
 10
1655.802436807888
 20
1582.537243236149
 30
0.0
  0
VERTEX
  5
139
330
134
100
AcDbEntity
  8
Miura_Table_9580-01_2D
100
AcDbVertex
100
AcDb2dVertex
 10
1655.802436807888
 20
1572.537243236149
 30
0.0
  0
SEQEND
  5
13A
330
134
100
AcDbEntity
  8
Miura_Table_9580-01_2D
  0
SPLINE
  5
13B
330
1F
100
AcDbEntity
  8
Miura_Table_9580-01_2D
100
AcDbSpline
210
0.0
220
0.0
230
1.0
 70
    12
 71
     2
 72
     6
 73
     3
 74
     0
 42
0.0000000001
 43
0.0000000001
 40
-0.0017236465548061
 40
-0.0017236465548061
 40
-0.0017236465548061
 40
0.0
 40
0.0
 40
0.0
 10
2143.304297242747
 20
1566.537243932034
 30
0.0
 41
1.0
 10
2143.305159065513
 20
1566.537244871856
 30
0.0
 41
1.0
 10
2143.306020888277
 20
1566.53724581134
 30
0.0
 41
1.0
  0
SPLINE
  5
13C
330
1F
100
AcDbEntity
  8
Miura_Table_9580-01_2D
100
AcDbSpline
210
0.0
220
0.0
230
1.0
 70
    12
 71
     2
 72
     6
 73
     3
 74
     0
 42
0.0000000001
 43
0.0000000001
 40
0.0
 40
0.0
 40
0.0
 40
3.923393678308207
 40
3.923393678308207
 40
3.923393678308207
 10
2143.306020888277
 20
1566.53724581134
 30
0.0
 41
1.0
 10
2145.802429955069
 20
1566.540831594076
 30
0.0
 41
0.7076128936508792
 10
2145.802427969739
 20
1569.037243236149
 30
0.0
 41
0.9999999999935767
  0
SPLINE
  5
13D
330
1F
100
AcDbEntity
  8
Miura_Table_9580-01_2D
100
AcDbSpline
210
0.0
220
0.0
230
1.0
 70
    24
 71
     2
 72
     6
 73
     3
 74
     0
 42
0.0000000001
 43
0.0000000001
 40
0.0
 40
0.0
 40
0.0
 40
3.5
 40
3.5
 40
3.5
 10
2145.80242796974
 20
1569.037243236149
 30
0.0
 10
2145.80226388676
 20
1570.787243236149
 30
0.0
 10
2145.80209980378
 20
1572.537243236149
 30
0.0
  0
SPLINE
  5
13E
330
1F
100
AcDbEntity
  8
Miura_Table_9580-01_2D
100
AcDbSpline
210
0.0
220
0.0
230
1.0
 70
    24
 71
     2
 72
     6
 73
     3
 74
     0
 42
0.0000000001
 43
0.0000000001
 40
-139.9993259299168
 40
-139.9993259299168
 40
-139.9993259299168
 40
0.0
 40
0.0
 40
0.0
 10
2145.80209980378
 20
1572.537243236149
 30
0.0
 10
2075.802268305834
 20
1572.537243236149
 30
0.0
 10
2005.802436807888
 20
1572.537243236149
 30
0.0
  0
SPLINE
  5
13F
330
1F
100
AcDbEntity
  8
Miura_Table_9580-01_2D
100
AcDbSpline
210
0.0
220
0.0
230
1.0
 70
    24
 71
     3
 72
     9
 73
     5
 74
     0
 42
0.0000000001
 43
0.0000000001
 40
-140.0006740700831
 40
-140.0006740700831
 40
-140.0006740700831
 40
-140.0006740700831
 40
-0.000588034942917
 40
0.0
 40
0.0
 40
0.0
 40
0.0
 10
2005.802436807888
 20
1572.537243236149
 30
0.0
 10
1959.135857480736
 20
1572.537243236147
 30
0.0
 10
1912.468755109328
 20
1572.53724323615
 30
0.0
 10
1865.802134121758
 20
1572.537243236151
 30
0.0
 10
1865.802773811998
 20
1572.537243236149
 30
0.0
  0
SPLINE
  5
140
330
1F
100
AcDbEntity
  8
Miura_Table_9580-01_2D
100
AcDbSpline
210
0.0
220
0.0
230
1.0
 70
    24
 71
     2
 72
     6
 73
     3
 74
     0
 42
0.0000000001
 43
0.0000000001
 40
0.0
 40
0.0
 40
0.0
 40
3.5
 40
3.5
 40
3.5
 10
1865.802773811998
 20
1572.537243236149
 30
0.0
 10
1865.802590363732
 20
1570.787243236149
 30
0.0
 10
1865.802406915467
 20
1569.037243236149
 30
0.0
  0
SPLINE
  5
141
330
1F
100
AcDbEntity
  8
Miura_Table_9580-01_2D
100
AcDbSpline
210
0.0
220
0.0
230
1.0
 70
    12
 71
     2
 72
     6
 73
     3
 74
     0
 42
0.0000000001
 43
0.0000000001
 40
0.0
 40
0.0
 40
0.0
 40
3.923569074038741
 40
3.923569074038741
 40
3.923569074038741
 10
1865.802406915467
 20
1569.03724323615
 30
0.0
 41
0.9999999999897549
 10
1865.802382265077
 20
1566.540665586072
 30
0.0
 41
0.7075916723679009
 10
1868.298957572611
 20
1566.537245587586
 30
0.0
 41
1.0
  0
SPLINE
  5
142
330
1F
100
AcDbEntity
  8
Miura_Table_9580-01_2D
100
AcDbSpline
210
0.0
220
0.0
230
1.0
 70
    28
 71
     2
 72
     6
 73
     3
 74
     0
 42
0.0000000001
 43
0.0000000001
 40
0.0
 40
0.0
 40
0.0
 40
0.0017079348288815
 40
0.0017079348288815
 40
0.0017079348288815
 10
1868.298957572611
 20
1566.537245587586
 30
0.0
 41
1.0
 10
1868.299811539573
 20
1566.537244708169
 30
0.0
 41
1.0
 10
1868.300665506534
 20
1566.537243828644
 30
0.0
 41
1.0
  0
SPLINE
  5
143
330
1F
100
AcDbEntity
  8
Miura_Table_9580-01_2D
100
AcDbSpline
210
0.0
220
0.0
230
1.0
 70
    24
 71
     3
 72
     9
 73
     5
 74
     0
 42
0.0000000001
 43
0.0000000001
 40
0.0
 40
0.0
 40
0.0
 40
0.0
 40
0.0006373261368182
 40
137.5005588484815
 40
137.5005588484815
 40
137.5005588484815
 40
137.5005588484815
 10
2143.301795453603
 20
1566.537243236149
 30
0.0
 10
2143.302817879273
 20
1566.537243236148
 30
0.0
 10
2097.469416866359
 20
1566.537243236148
 30
0.0
 10
2051.63577222612
 20
1566.537243236148
 30
0.0
 10
2005.802474032625
 20
1566.537243236149
 30
0.0
  0
SPLINE
  5
144
330
1F
100
AcDbEntity
  8
Miura_Table_9580-01_2D
100
AcDbSpline
210
0.0
220
0.0
230
1.0
 70
    24
 71
     2
 72
     6
 73
     3
 74
     0
 42
0.0000000001
 43
0.0000000001
 40
0.0
 40
0.0
 40
0.0
 40
137.4994130277261
 40
137.4994130277261
 40
137.4994130277261
 10
2005.802474032625
 20
1566.537243236149
 30
0.0
 10
1937.052748906377
 20
1566.537243236149
 30
0.0
 10
1868.303023780129
 20
1566.537243236149
 30
0.0
  0
SPLINE
  5
145
330
1F
100
AcDbEntity
  8
Miura_Table_9580-01_2D
100
AcDbSpline
210
0.0
220
0.0
230
1.0
 70
    24
 71
     2
 72
     6
 73
     3
 74
     0
 42
0.0000000001
 43
0.0000000001
 40
-47.99848741513632
 40
-47.99848741513632
 40
-47.99848741513632
 40
0.0
 40
0.0
 40
0.0
 10
2097.370346279311
 20
1566.536486935764
 30
0.0
 10
2076.58615768385
 20
1554.536865085957
 30
0.0
 10
2055.801969088389
 20
1542.537243236149
 30
0.0
  0
SPLINE
  5
146
330
1F
100
AcDbEntity
  8
Miura_Table_9580-01_2D
100
AcDbSpline
210
0.0
220
0.0
230
1.0
 70
    24
 71
     3
 72
    10
 73
     6
 74
     0
 42
0.0000000001
 43
0.0000000001
 40
0.0
 40
0.0
 40
0.0
 40
0.0
 40
0.0007038564752122
 40
0.0009354610935191
 40
50.0009354610936
 40
50.0009354610936
 40
50.0009354610936
 40
50.0009354610936
 10
2055.801969088389
 20
1542.537243236149
 30
0.0
 10
2055.801140335271
 20
1542.537243236152
 30
0.0
 10
2055.802774008693
 20
1542.537243236149
 30
0.0
 10
2039.135935720872
 20
1542.537243236151
 30
0.0
 10
2022.469052803432
 20
1542.537243236148
 30
0.0
 10
2005.802436807888
 20
1542.537243236149
 30
0.0
  0
SPLINE
  5
147
330
1F
100
AcDbEntity
  8
Miura_Table_9580-01_2D
100
AcDbSpline
210
0.0
220
0.0
230
1.0
 70
    24
 71
     2
 72
     6
 73
     3
 74
     0
 42
0.0000000001
 43
0.0000000001
 40
0.0
 40
0.0
 40
0.0
 40
49.99906453890648
 40
49.99906453890648
 40
49.99906453890648
 10
2005.802436807888
 20
1542.537243236149
 30
0.0
 10
1980.802670667638
 20
1542.537243236149
 30
0.0
 10
1955.802904527387
 20
1542.537243236149
 30
0.0
  0
SPLINE
  5
148
330
1F
100
AcDbEntity
  8
Miura_Table_9580-01_2D
100
AcDbSpline
210
0.0
220
0.0
230
1.0
 70
    24
 71
     2
 72
     6
 73
     3
 74
     0
 42
0.0000000001
 43
0.0000000001
 40
-47.9984874151363
 40
-47.9984874151363
 40
-47.9984874151363
 40
0.0
 40
0.0
 40
0.0
 10
1955.802904527387
 20
1542.537243236149
 30
0.0
 10
1935.018715931927
 20
1554.536865085957
 30
0.0
 10
1914.234527336466
 20
1566.536486935764
 30
0.0
  0
SPLINE
  5
149
330
1F
100
AcDbEntity
  8
Miura_Table_9580-01_2D
100
AcDbSpline
210
0.0
220
0.0
230
1.0
 70
    24
 71
     2
 72
     6
 73
     3
 74
     0
 42
0.0000000001
 43
0.0000000001
 40
-47.99848741513632
 40
-47.99848741513632
 40
-47.99848741513632
 40
0.0
 40
0.0
 40
0.0
 10
1119.243090655939
 20
1566.536486935764
 30
0.0
 10
1098.458902060478
 20
1554.536865085957
 30
0.0
 10
1077.674713465016
 20
1542.537243236149
 30
0.0
  0
SPLINE
  5
14A
330
1F
100
AcDbEntity
  8
Miura_Table_9580-01_2D
100
AcDbSpline
210
0.0
220
0.0
230
1.0
 70
    24
 71
     3
 72
    10
 73
     6
 74
     0
 42
0.0000000001
 43
0.0000000001
 40
0.0
 40
0.0
 40
0.0
 40
0.0
 40
0.0007038564752122
 40
0.0009354610935191
 40
50.0009354610936
 40
50.0009354610936
 40
50.0009354610936
 40
50.0009354610936
 10
1077.674713465016
 20
1542.537243236149
 30
0.0
 10
1077.673884711898
 20
1542.537243236152
 30
0.0
 10
1077.675518385321
 20
1542.537243236149
 30
0.0
 10
1061.008680097499
 20
1542.537243236151
 30
0.0
 10
1044.34179718006
 20
1542.537243236148
 30
0.0
 10
1027.675181184516
 20
1542.537243236149
 30
0.0
  0
SPLINE
  5
14B
330
1F
100
AcDbEntity
  8
Miura_Table_9580-01_2D
100
AcDbSpline
210
0.0
220
0.0
230
1.0
 70
    24
 71
     2
 72
     6
 73
     3
 74
     0
 42
0.0000000001
 43
0.0000000001
 40
0.0
 40
0.0
 40
0.0
 40
49.99906453890648
 40
49.99906453890648
 40
49.99906453890648
 10
1027.675181184516
 20
1542.537243236149
 30
0.0
 10
1002.675415044265
 20
1542.537243236149
 30
0.0
 10
977.6756489040149
 20
1542.537243236149
 30
0.0
  0
SPLINE
  5
14C
330
1F
100
AcDbEntity
  8
Miura_Table_9580-01_2D
100
AcDbSpline
210
0.0
220
0.0
230
1.0
 70
    24
 71
     2
 72
     6
 73
     3
 74
     0
 42
0.0000000001
 43
0.0000000001
 40
-47.9984874151363
 40
-47.9984874151363
 40
-47.9984874151363
 40
0.0
 40
0.0
 40
0.0
 10
977.6756489040149
 20
1542.537243236149
 30
0.0
 10
956.8914603085541
 20
1554.536865085957
 30
0.0
 10
936.1072717130933
 20
1566.536486935764
 30
0.0
  0
SPLINE
  5
14D
330
1F
100
AcDbEntity
  8
Miura_Table_9580-01_2D
100
AcDbSpline
210
0.0
220
0.0
230
1.0
 70
    24
 71
     3
 72
     9
 73
     5
 74
     0
 42
0.0000000001
 43
0.0000000001
 40
0.0
 40
0.0
 40
0.0
 40
0.0
 40
0.0006373261368182
 40
137.5005588484815
 40
137.5005588484815
 40
137.5005588484815
 40
137.5005588484815
 10
1165.174539830231
 20
1566.537243236149
 30
0.0
 10
1165.175562255901
 20
1566.537243236148
 30
0.0
 10
1119.342161242986
 20
1566.537243236148
 30
0.0
 10
1073.508516602748
 20
1566.537243236148
 30
0.0
 10
1027.675218409252
 20
1566.537243236149
 30
0.0
  0
SPLINE
  5
14E
330
1F
100
AcDbEntity
  8
Miura_Table_9580-01_2D
100
AcDbSpline
210
0.0
220
0.0
230
1.0
 70
    24
 71
     2
 72
     6
 73
     3
 74
     0
 42
0.0000000001
 43
0.0000000001
 40
0.0
 40
0.0
 40
0.0
 40
137.4994130277261
 40
137.4994130277261
 40
137.4994130277261
 10
1027.675218409252
 20
1566.537243236149
 30
0.0
 10
958.9254932830045
 20
1566.537243236149
 30
0.0
 10
890.1757681567565
 20
1566.537243236149
 30
0.0
  0
SPLINE
  5
14F
330
1F
100
AcDbEntity
  8
Miura_Table_9580-01_2D
100
AcDbSpline
210
0.0
220
0.0
230
1.0
 70
    12
 71
     2
 72
     6
 73
     3
 74
     0
 42
0.0000000001
 43
0.0000000001
 40
-0.0017236465548061
 40
-0.0017236465548061
 40
-0.0017236465548061
 40
0.0
 40
0.0
 40
0.0
 10
1165.177041619374
 20
1566.537243932034
 30
0.0
 41
1.0
 10
1165.17790344214
 20
1566.537244871856
 30
0.0
 41
1.0
 10
1165.178765264904
 20
1566.53724581134
 30
0.0
 41
1.0
  0
SPLINE
  5
150
330
1F
100
AcDbEntity
  8
Miura_Table_9580-01_2D
100
AcDbSpline
210
0.0
220
0.0
230
1.0
 70
    12
 71
     2
 72
     6
 73
     3
 74
     0
 42
0.0000000001
 43
0.0000000001
 40
0.0
 40
0.0
 40
0.0
 40
3.923393678308207
 40
3.923393678308207
 40
3.923393678308207
 10
1165.178765264904
 20
1566.53724581134
 30
0.0
 41
1.0
 10
1167.675174331697
 20
1566.540831594075
 30
0.0
 41
0.7076128936508792
 10
1167.675172346367
 20
1569.037243236149
 30
0.0
 41
0.9999999999935767
  0
SPLINE
  5
151
330
1F
100
AcDbEntity
  8
Miura_Table_9580-01_2D
100
AcDbSpline
210
0.0
220
0.0
230
1.0
 70
    24
 71
     2
 72
     6
 73
     3
 74
     0
 42
0.0000000001
 43
0.0000000001
 40
0.0
 40
0.0
 40
0.0
 40
3.5
 40
3.5
 40
3.5
 10
1167.675172346367
 20
1569.037243236149
 30
0.0
 10
1167.675008263387
 20
1570.787243236149
 30
0.0
 10
1167.674844180407
 20
1572.537243236149
 30
0.0
  0
SPLINE
  5
152
330
1F
100
AcDbEntity
  8
Miura_Table_9580-01_2D
100
AcDbSpline
210
0.0
220
0.0
230
1.0
 70
    24
 71
     2
 72
     6
 73
     3
 74
     0
 42
0.0000000001
 43
0.0000000001
 40
-139.9993259299168
 40
-139.9993259299168
 40
-139.9993259299168
 40
0.0
 40
0.0
 40
0.0
 10
1167.674844180407
 20
1572.537243236149
 30
0.0
 10
1097.675012682461
 20
1572.537243236149
 30
0.0
 10
1027.675181184516
 20
1572.537243236149
 30
0.0
  0
SPLINE
  5
153
330
1F
100
AcDbEntity
  8
Miura_Table_9580-01_2D
100
AcDbSpline
210
0.0
220
0.0
230
1.0
 70
    24
 71
     3
 72
     9
 73
     5
 74
     0
 42
0.0000000001
 43
0.0000000001
 40
-140.0006740700831
 40
-140.0006740700831
 40
-140.0006740700831
 40
-140.0006740700831
 40
-0.000588034942917
 40
0.0
 40
0.0
 40
0.0
 40
0.0
 10
1027.675181184516
 20
1572.537243236149
 30
0.0
 10
981.0086018573634
 20
1572.537243236147
 30
0.0
 10
934.3414994859554
 20
1572.53724323615
 30
0.0
 10
887.6748784983852
 20
1572.537243236151
 30
0.0
 10
887.6755181886251
 20
1572.537243236149
 30
0.0
  0
SPLINE
  5
154
330
1F
100
AcDbEntity
  8
Miura_Table_9580-01_2D
100
AcDbSpline
210
0.0
220
0.0
230
1.0
 70
    24
 71
     2
 72
     6
 73
     3
 74
     0
 42
0.0000000001
 43
0.0000000001
 40
0.0
 40
0.0
 40
0.0
 40
3.5
 40
3.5
 40
3.5
 10
887.6755181886251
 20
1572.537243236149
 30
0.0
 10
887.6753347403596
 20
1570.787243236149
 30
0.0
 10
887.6751512920941
 20
1569.037243236149
 30
0.0
  0
SPLINE
  5
155
330
1F
100
AcDbEntity
  8
Miura_Table_9580-01_2D
100
AcDbSpline
210
0.0
220
0.0
230
1.0
 70
    12
 71
     2
 72
     6
 73
     3
 74
     0
 42
0.0000000001
 43
0.0000000001
 40
0.0
 40
0.0
 40
0.0
 40
3.923569074038741
 40
3.923569074038741
 40
3.923569074038741
 10
887.6751512920944
 20
1569.037243236149
 30
0.0
 41
0.9999999999897549
 10
887.6751266417042
 20
1566.540665586073
 30
0.0
 41
0.7075916723679009
 10
890.1717019492385
 20
1566.537245587586
 30
0.0
 41
1.0
  0
SPLINE
  5
156
330
1F
100
AcDbEntity
  8
Miura_Table_9580-01_2D
100
AcDbSpline
210
0.0
220
0.0
230
1.0
 70
    28
 71
     2
 72
     6
 73
     3
 74
     0
 42
0.0000000001
 43
0.0000000001
 40
0.0
 40
0.0
 40
0.0
 40
0.0017079348288815
 40
0.0017079348288815
 40
0.0017079348288815
 10
890.1717019492385
 20
1566.537245587586
 30
0.0
 41
1.0
 10
890.1725559162
 20
1566.537244708169
 30
0.0
 41
1.0
 10
890.1734098831616
 20
1566.537243828644
 30
0.0
 41
1.0
  0
SPLINE
  5
157
330
1F
100
AcDbEntity
  8
Miura_Table_9580-01_2D
100
AcDbSpline
210
0.0
220
0.0
230
1.0
 70
    28
 71
     2
 72
     6
 73
     3
 74
     0
 42
0.0000000001
 43
0.0000000001
 40
-0.0016858811199636
 40
-0.0016858811199636
 40
-0.0016858811199636
 40
0.0
 40
0.0
 40
0.0
 10
-137.5019586246008
 20
1566.537244005767
 30
0.0
 41
1.0
 10
-137.5028015646303
 20
1566.537244951323
 30
0.0
 41
1.0
 10
-137.5036445046599
 20
1566.537245896768
 30
0.0
 41
1.0
  0
SPLINE
  5
158
330
1F
100
AcDbEntity
  8
Miura_Table_9580-01_2D
100
AcDbSpline
210
0.0
220
0.0
230
1.0
 70
    12
 71
     2
 72
     6
 73
     3
 74
     0
 42
0.0000000001
 43
0.0000000001
 40
0.0
 40
0.0
 40
0.0
 40
3.923330453739822
 40
3.923330453739822
 40
3.923330453739822
 10
-137.5036445046599
 20
1566.537245896768
 30
0.0
 41
1.0
 10
-139.999991805237
 20
1566.540893270993
 30
0.0
 41
0.7076212603681254
 10
-139.9999890541424
 20
1569.037243236151
 30
0.0
 41
0.9999999999904636
  0
SPLINE
  5
159
330
1F
100
AcDbEntity
  8
Miura_Table_9580-01_2D
100
AcDbSpline
210
0.0
220
0.0
230
1.0
 70
    24
 71
     2
 72
     6
 73
     3
 74
     0
 42
0.0000000001
 43
0.0000000001
 40
0.0
 40
0.0
 40
0.0
 40
3.499999999999773
 40
3.499999999999773
 40
3.499999999999773
 10
-139.9999890541421
 20
1569.037243236151
 30
0.0
 10
-139.9998258691289
 20
1570.78724323615
 30
0.0
 10
-139.9996626841157
 20
1572.53724323615
 30
0.0
  0
SPLINE
  5
15A
330
1F
100
AcDbEntity
  8
Miura_Table_9580-01_2D
100
AcDbSpline
210
0.0
220
0.0
230
1.0
 70
    24
 71
     3
 72
     8
 73
     4
 74
     0
 42
0.0000000001
 43
0.0000000001
 40
-279.9993259299167
 40
-279.9993259299167
 40
-279.9993259299167
 40
-279.9993259299167
 40
0.0
 40
0.0
 40
0.0
 40
0.0
 10
-139.9996626841157
 20
1572.53724323615
 30
0.0
 10
-46.66621697483605
 20
1572.53724323615
 30
0.0
 10
46.66689166846938
 20
1572.537243236149
 30
0.0
 10
140.0000003427076
 20
1572.537243236151
 30
0.0
  0
SPLINE
  5
15B
330
1F
100
AcDbEntity
  8
Miura_Table_9580-01_2D
100
AcDbSpline
210
0.0
220
0.0
230
1.0
 70
    24
 71
     2
 72
     6
 73
     3
 74
     0
 42
0.0000000001
 43
0.0000000001
 40
0.0
 40
0.0
 40
0.0
 40
3.5
 40
3.5
 40
3.5
 10
140.0000003427076
 20
1572.537243236151
 30
0.0
 10
140.0000003467999
 20
1570.787243236151
 30
0.0
 10
140.0000003508922
 20
1569.037243236151
 30
0.0
  0
SPLINE
  5
15C
330
1F
100
AcDbEntity
  8
Miura_Table_9580-01_2D
100
AcDbSpline
210
0.0
220
0.0
230
1.0
 70
    12
 71
     2
 72
     6
 73
     3
 74
     0
 42
0.0000000001
 43
0.0000000001
 40
0.0
 40
0.0
 40
0.0
 40
3.926978729214439
 40
3.926978729214439
 40
3.926978729214439
 10
140.0000003508922
 20
1569.037243236151
 30
0.0
 41
1.0
 10
139.9999997171599
 20
1566.53725567264
 30
0.0
 41
0.7071086263809615
 10
137.500006233292
 20
1566.537243236164
 30
0.0
 41
1.0
  0
SPLINE
  5
15D
330
1F
100
AcDbEntity
  8
Miura_Table_9580-01_2D
100
AcDbSpline
210
0.0
220
0.0
230
1.0
 70
    24
 71
     3
 72
     9
 73
     5
 74
     0
 42
0.0000000001
 43
0.0000000001
 40
-275.000634640636
 40
-275.000634640636
 40
-275.000634640636
 40
-275.000634640636
 40
-0.0006371167132784
 40
0.0
 40
0.0
 40
0.0
 40
0.0
 10
137.500006233292
 20
1566.537243236164
 30
0.0
 10
45.83335465098754
 20
1566.537243236148
 30
0.0
 10
-45.83358505928571
 20
1566.537243236156
 30
0.0
 10
-137.5003990038122
 20
1566.537243236151
 30
0.0
 10
-137.4993600943062
 20
1566.537243236151
 30
0.0
  0
SPLINE
  5
15E
330
1F
100
AcDbEntity
  8
Miura_Table_9580-01_2D
100
AcDbSpline
210
0.0
220
0.0
230
1.0
 70
    24
 71
     2
 72
     6
 73
     3
 74
     0
 42
0.0000000001
 43
0.0000000001
 40
0.0
 40
0.0
 40
0.0
 40
47.99851635084929
 40
47.99851635084929
 40
47.99851635084929
 10
91.56793484226002
 20
1566.536501403622
 30
0.0
 10
70.78396758254122
 20
1554.536872319886
 30
0.0
 10
50.00000032282243
 20
1542.537243236151
 30
0.0
  0
SPLINE
  5
15F
330
1F
100
AcDbEntity
  8
Miura_Table_9580-01_2D
100
AcDbSpline
210
0.0
220
0.0
230
1.0
 70
    24
 71
     3
 72
    10
 73
     6
 74
     0
 42
0.0000000001
 43
0.0000000001
 40
-100.0009354610945
 40
-100.0009354610945
 40
-100.0009354610945
 40
-100.0009354610945
 40
-0.0009354610938317
 40
-0.0007038564751838
 40
0.0
 40
0.0
 40
0.0
 40
0.0
 10
50.00000032282243
 20
1542.537243236151
 30
0.0
 10
16.66669703103618
 20
1542.537243236149
 30
0.0
 10
-16.66680366354647
 20
1542.537243236153
 30
0.0
 10
-50.00035007035602
 20
1542.537243236154
 30
0.0
 10
-49.99868852134931
 20
1542.537243236151
 30
0.0
 10
-49.99953196872501
 20
1542.537243236151
 30
0.0
  0
SPLINE
  5
160
330
1F
100
AcDbEntity
  8
Miura_Table_9580-01_2D
100
AcDbSpline
210
0.0
220
0.0
230
1.0
 70
    24
 71
     2
 72
     6
 73
     3
 74
     0
 42
0.0000000001
 43
0.0000000001
 40
0.0
 40
0.0
 40
0.0
 40
47.99848741513637
 40
47.99848741513637
 40
47.99848741513637
 10
-49.99953196872501
 20
1542.537243236151
 30
0.0
 10
-70.78372056418628
 20
1554.536865085958
 30
0.0
 10
-91.56790915964756
 20
1566.536486935765
 30
0.0
  0
LINE
  5
161
330
1F
100
AcDbEntity
  8
Miura_Table_9580-01_2D
100
AcDbLine
 10
-24.99942602276952
 20
1222.679645199049
 30
0.0
 11
-24.99942602276952
 21
1542.537243236153
 31
0.0
  0
LINE
  5
162
330
1F
100
AcDbEntity
  8
Miura_Table_9580-01_2D
100
AcDbLine
 10
25.00032668345647
 20
1542.53724323615
 30
0.0
 11
25.00032668345647
 21
1222.673392104815
 31
0.0
  0
LINE
  5
163
330
1F
100
AcDbEntity
  8
Miura_Table_9580-01_2D
100
AcDbLine
 10
1002.675292719539
 20
1542.537243236149
 30
0.0
 11
1002.67551669021
 21
1224.329221176015
 31
0.0
  0
LINE
  5
164
330
1F
100
AcDbEntity
  8
Miura_Table_9580-01_2D
100
AcDbLine
 10
1052.675057535198
 20
1219.329221159766
 30
0.0
 11
1052.675057537765
 21
1542.537243236149
 31
0.0
  0
LINE
  5
165
330
1F
100
AcDbEntity
  8
Miura_Table_9580-01_2D
100
AcDbLine
 10
1980.802110436206
 20
1219.928557532848
 30
0.0
 11
1980.802110436206
 21
1542.537243236149
 31
0.0
  0
LINE
  5
166
330
1F
100
AcDbEntity
  8
Miura_Table_9580-01_2D
100
AcDbLine
 10
2030.801863142432
 20
1542.537243236149
 30
0.0
 11
2030.801863142432
 21
1219.928557532848
 31
0.0
  0
SPLINE
  5
167
330
1F
100
AcDbEntity
  8
Miura_Table_9580-01_2D
 62
     9
100
AcDbSpline
210
0.0
220
0.0
230
1.0
 70
    15
 71
     2
 72
    12
 73
     9
 74
     0
 42
0.0000000001
 43
0.0000000001
 40
0.0
 40
0.0
 40
0.0
 40
78.53981633974519
 40
78.53981633974519
 40
157.0796326794904
 40
157.0796326794904
 40
235.6194490192356
 40
235.6194490192356
 40
314.1592653589807
 40
314.1592653589807
 40
314.1592653589807
 10
50.00000000000091
 20
0.00000000000054
 30
0.0
 41
1.0
 10
50.00000000000028
 20
50.0000000000008
 30
0.0
 41
0.7071067811865476
 10
0.0
 20
50.00000000000063
 30
0.0
 41
1.0
 10
-49.99999999999988
 20
50.00000000000048
 30
0.0
 41
0.7071067811865476
 10
-50.0
 20
0.0000000000002558
 30
0.0
 41
1.0
 10
-49.99999999999988
 20
-50.0
 30
0.0
 41
0.7071067811865476
 10
0.0000000000009095
 20
-49.99999999999983
 30
0.0
 41
1.0
 10
50.00000000000028
 20
-49.99999999999967
 30
0.0
 41
0.7071067811865476
 10
50.00000000000091
 20
0.00000000000054
 30
0.0
 41
1.0
  0
SPLINE
  5
168
330
1F
100
AcDbEntity
  8
Miura_Table_9580-01_2D
 62
     9
100
AcDbSpline
210
0.0
220
0.0
230
1.0
 70
    11
 71
     3
 72
    39
 73
    35
 74
     0
 42
0.0000000001
 43
0.0000000001
 40
0.0
 40
0.0
 40
0.0
 40
0.0
 40
17.98133963208149
 40
35.96416715575479
 40
53.94353992342776
 40
71.91786655367305
 40
89.89514452286816
 40
107.8785487581381
 40
125.8540793452332
 40
143.8357162912548
 40
161.8170559233368
 40
179.79988344701
 40
197.7792562146827
 40
215.7535828449282
 40
233.7308608141233
 40
251.7142650493934
 40
269.689795636488
 40
287.6714325825098
 40
305.6527722145915
 40
323.6355997382645
 40
341.6149725059374
 40
359.5892991361829
 40
377.566577105378
 40
395.549981340648
 40
413.5255119277427
 40
431.5071488737649
 40
449.4884885058464
 40
467.4713160295196
 40
485.4506887971928
 40
503.4250154274384
 40
521.4022933966334
 40
539.3856976319033
 40
557.3612282189979
 40
575.3428651650199
 40
575.3428651650199
 40
575.3428651650199
 40
575.3428651650199
 10
91.56921938165397
 20
0.00000000000054
 30
0.0
 10
91.56948691078924
 20
-5.993797758919328
 30
0.0
 10
90.38825195473783
 20
-17.98174947099955
 30
0.0
 10
85.1427980737526
 20
-35.2717548485829
 30
0.0
 10
76.62575404482413
 20
-51.20389460220588
 30
0.0
 10
65.16571066203505
 20
-65.16709423389571
 30
0.0
 10
51.20133713873838
 20
-76.62789339838412
 30
0.0
 10
35.26851210376299
 20
-85.14365339470413
 30
0.0
 10
17.97978371751196
 20
-90.38902608036612
 30
0.0
 10
-0.000052518492339
 20
-92.15914192328603
 30
0.0
 10
-17.98169311200763
 20
-90.3888055451678
 30
0.0
 10
-35.27179000819069
 20
-85.1424592335664
 30
0.0
 10
-51.20387291329189
 20
-76.62596259549684
 30
0.0
 10
-65.16710759702255
 20
-65.16558220256277
 30
0.0
 10
-76.62788516343699
 20
-51.2014162986209
 30
0.0
 10
-85.14365846745113
 20
-35.26846334126054
 30
0.0
 10
-90.38902295525986
 20
-17.97981375801263
 30
0.0
 10
-92.15914384876123
 20
0.0000710273775724
 30
0.0
 10
-90.38880435888586
 20
17.98168170872125
 30
0.0
 10
-85.14245996441059
 20
35.27179703352107
 30
0.0
 10
-76.6259621453255
 20
51.2038685859626
 30
0.0
 10
-65.16558247987814
 20
65.16711026274152
 30
0.0
 10
-51.20141612773023
 20
76.62788352073915
 30
0.0
 10
-35.26846344652859
 20
85.14365947935698
 30
0.0
 10
-17.97981369316039
 20
90.3890223318707
 30
0.0
 10
0.000070987419349
 20
92.1591442328517
 30
0.0
 10
17.98168173334034
 20
90.38880412225063
 30
0.0
 10
35.27179701835394
 20
85.14246011019793
 30
0.0
 10
51.2038685953039
 20
76.62596205552757
 30
0.0
 10
65.16716284761696
 20
65.1656314399051
 30
0.0
 10
76.62767261086992
 20
51.20128801855694
 30
0.0
 10
85.14394899013405
 20
35.26863691346529
 30
0.0
 10
90.38877489611423
 20
17.97961758881644
 30
0.0
 10
91.56877104474006
 20
5.993823343227575
 30
0.0
 10
91.56921938165397
 20
0.0000000000004832
 30
0.0
  0
SPLINE
  5
169
330
1F
100
AcDbEntity
  8
Miura_Table_9580-01_2D
 62
     9
100
AcDbSpline
210
0.0
220
0.0
230
1.0
 70
    11
 71
     3
 72
    39
 73
    35
 74
     0
 42
0.0000000001
 43
0.0000000001
 40
0.0
 40
0.0
 40
0.0
 40
0.0
 40
27.49163491281067
 40
54.98554466015823
 40
82.47417243782984
 40
109.9550851858812
 40
137.4405102302657
 40
164.9353017108435
 40
192.4180551861614
 40
219.9101446616718
 40
247.4017795744827
 40
274.8956893218303
 40
302.3843170995021
 40
329.8652298475533
 40
357.3506548919382
 40
384.8454463725156
 40
412.3281998478335
 40
439.8202893233441
 40
467.311924236154
 40
494.8058339835015
 40
522.2944617611732
 40
549.7753745092244
 40
577.2607995536106
 40
604.755591034188
 40
632.2383445095059
 40
659.7304339850166
 40
687.222068897827
 40
714.7159786451745
 40
742.2046064228463
 40
769.6855191708972
 40
797.1709442152832
 40
824.6657356958605
 40
852.1484891711783
 40
879.6405786466887
 40
879.6405786466887
 40
879.6405786466887
 40
879.6405786466887
 10
140.0000000000009
 20
0.0000000000005116
 30
0.0
 10
140.0004090247703
 20
-9.163905643350944
 30
0.0
 10
138.1944212161625
 20
-27.49226151472897
 30
0.0
 10
130.1746570607302
 20
-53.92691684113075
 30
0.0
 10
117.1529651417422
 20
-78.28553407702432
 30
0.0
 10
99.63172728010431
 20
-99.63384262040996
 30
0.0
 10
78.28162397614233
 20
-117.156235995207
 30
0.0
 10
53.92195901493142
 20
-130.1759647592557
 30
0.0
 10
27.4892560780745
 20
-138.1956047753177
 30
0.0
 10
-0.0000802954209576
 20
-140.9019314174167
 30
0.0
 10
-27.49217534757645
 20
-138.1952675994851
 30
0.0
 10
-53.92697059658713
 20
-130.1741390086331
 30
0.0
 10
-78.2855009168843
 20
-117.1532839944569
 30
0.0
 10
-99.63386305126551
 20
-99.6315308786685
 30
0.0
 10
-117.156223404816
 20
-78.28174500353096
 30
0.0
 10
-130.1759725149677
 20
-53.9218844620375
 30
0.0
 10
-138.1955999973516
 20
-27.48930200693806
 30
0.0
 10
-140.9019343612681
 20
0.0001085936183927
 30
0.0
 10
-138.1952657857837
 20
27.49215791311335
 30
0.0
 10
-130.1741401260178
 20
53.9269813375987
 30
0.0
 10
-117.153283306192
 20
78.28549430083945
 30
0.0
 10
-99.63153130265346
 20
99.63386712688043
 30
0.0
 10
-78.28174474225762
 20
117.1562208932944
 30
0.0
 10
-53.92188462298327
 20
130.1759740620686
 30
0.0
 10
-27.48930190778628
 20
138.1955990442501
 30
0.0
 10
0.0001085325284294
 20
140.9019349485069
 30
0.0
 10
27.4921579507527
 20
138.1952654239892
 30
0.0
 10
53.92698131441102
 20
130.174140348913
 30
0.0
 10
78.2854943151242
 20
117.1532831688992
 30
0.0
 10
99.6339475237919
 20
99.63160615754401
 30
0.0
 10
117.1558984336098
 20
78.28154887639255
 30
0.0
 10
130.1764166945277
 20
53.92214983624064
 30
0.0
 10
138.1952207402082
 20
27.4890020842378
 30
0.0
 10
139.9993145385724
 20
9.163944759148961
 30
0.0
 10
140.0000000000009
 20
0.0000000000005116
 30
0.0
  0
SPLINE
  5
16A
330
1F
100
AcDbEntity
  8
Miura_Table_9580-01_2D
 62
     9
100
AcDbSpline
210
0.0
220
0.0
230
1.0
 70
    24
 71
     2
 72
     6
 73
     3
 74
     0
 42
0.0000000001
 43
0.0000000001
 40
0.0
 40
0.0
 40
0.0
 40
203.6337242888049
 40
203.6337242888049
 40
203.6337242888049
 10
131.838982138609
 20
-47.09964595877372
 30
0.0
 10
220.0149658406337
 20
-98.00808663327139
 30
0.0
 10
308.1909495426585
 20
-148.9165273077691
 30
0.0
  0
SPLINE
  5
16B
330
1F
100
AcDbEntity
  8
Miura_Table_9580-01_2D
 62
     9
100
AcDbSpline
210
0.0
220
0.0
230
1.0
 70
    24
 71
     2
 72
     6
 73
     3
 74
     0
 42
0.0000000001
 43
0.0000000001
 40
0.0
 40
0.0
 40
0.0
 40
0.0064177164631026
 40
0.0064177164631026
 40
0.0064177164631026
 10
308.1909495426585
 20
-148.9165273077691
 30
0.0
 10
308.1937337335778
 20
-148.9181226850326
 30
0.0
 10
308.1965179244971
 20
-148.9197180622961
 30
0.0
  0
SPLINE
  5
16C
330
1F
100
AcDbEntity
  8
Miura_Table_9580-01_2D
 62
     9
100
AcDbSpline
210
0.0
220
0.0
230
1.0
 70
     8
 71
     3
 72
    21
 73
    17
 74
     0
 42
0.0000000001
 43
0.0000000001
 40
0.0
 40
0.0
 40
0.0
 40
0.0
 40
1.09120061983259
 40
2.108475076510266
 40
4.196394565957977
 40
6.382145182392395
 40
8.490982845352113
 40
12.81895580244948
 40
17.27666290000627
 40
21.93536994694479
 40
26.72660484100899
 40
31.591605498907
 40
34.06202637132719
 40
35.29851844026861
 40
35.89107656027873
 40
36.53847946972913
 40
36.53847946972913
 40
36.53847946972913
 40
36.53847946972913
 10
308.1965179244971
 20
-148.9197180622961
 30
0.0
 10
308.5089404992941
 20
-149.1058711441284
 30
0.0
 10
309.1102677447816
 20
-149.4704254059214
 30
0.0
 10
310.2537078339783
 20
-150.2773367782505
 30
0.0
 10
311.6099442472723
 20
-151.4088108428403
 30
0.0
 10
313.0729272985218
 20
-152.958972342571
 30
0.0
 10
314.8045830313013
 20
-155.2582731863513
 30
0.0
 10
316.4942704343111
 20
-158.4962452053456
 30
0.0
 10
317.7210563332947
 20
-162.8290779082803
 30
0.0
 10
318.1103824101992
 20
-167.4693170870758
 30
0.0
 10
317.6336097370586
 20
-172.2359495815191
 30
0.0
 10
316.5444464997372
 20
-176.1436660087201
 30
0.0
 10
315.434998505355
 20
-178.7795782701248
 30
0.0
 10
314.7976459644733
 20
-180.0635053409805
 30
0.0
 10
314.4081652919476
 20
-180.7914042969088
 30
0.0
 10
314.2041724798519
 20
-181.1509114762432
 30
0.0
 10
314.0970039354206
 20
-181.3382162739489
 30
0.0
  0
SPLINE
  5
16D
330
1F
100
AcDbEntity
  8
Miura_Table_9580-01_2D
 62
     9
100
AcDbSpline
210
0.0
220
0.0
230
1.0
 70
    24
 71
     2
 72
     6
 73
     3
 74
     0
 42
0.0000000001
 43
0.0000000001
 40
0.0
 40
0.0
 40
0.0
 40
0.0049689727683289
 40
0.0049689727683289
 40
0.0049689727683289
 10
314.0970039354206
 20
-181.3382162739489
 30
0.0
 10
314.0957573371963
 20
-181.3403743439312
 30
0.0
 10
314.0945107389721
 20
-181.3425324139135
 30
0.0
  0
SPLINE
  5
16E
330
1F
100
AcDbEntity
  8
Miura_Table_9580-01_2D
 62
     9
100
AcDbSpline
210
0.0
220
0.0
230
1.0
 70
    24
 71
     2
 72
     6
 73
     3
 74
     0
 42
0.0000000001
 43
0.0000000001
 40
0.0
 40
0.0
 40
0.0
 40
0.0049999976354462
 40
0.0049999976354462
 40
0.0049999976354462
 10
314.0945107389721
 20
-181.3425324139135
 30
0.0
 10
314.0932573384396
 20
-181.3447044687966
 30
0.0
 10
314.0920039379071
 20
-181.3468765236796
 30
0.0
  0
SPLINE
  5
16F
330
1F
100
AcDbEntity
  8
Miura_Table_9580-01_2D
 62
     9
100
AcDbSpline
210
0.0
220
0.0
230
1.0
 70
     8
 71
     3
 72
    21
 73
    17
 74
     0
 42
0.0000000001
 43
0.0000000001
 40
0.0
 40
0.0
 40
0.0
 40
0.0
 40
0.6474029094493622
 40
1.239961029460211
 40
2.476453098401548
 40
4.946873970820978
 40
9.81187462871942
 40
14.60310952278444
 40
19.26181656972225
 40
23.71952366727886
 40
28.04749662437723
 40
30.1563342873369
 40
32.34208490377009
 40
34.43000439321897
 40
35.44727884989575
 40
36.53847946972826
 40
36.53847946972826
 40
36.53847946972826
 40
36.53847946972826
 10
314.0920039379071
 20
-181.3468765236796
 30
0.0
 10
313.9833747923012
 20
-181.5333379620981
 30
0.0
 10
313.7740366529133
 20
-181.8897592484489
 30
0.0
 10
313.3382419798618
 20
-182.5908954632085
 30
0.0
 10
312.5453192995428
 20
-183.7850566833573
 30
0.0
 10
310.8169979320064
 20
-186.0635784804133
 30
0.0
 10
307.9776351089504
 20
-188.9609432336235
 30
0.0
 10
304.087902061442
 20
-191.7569923460842
 30
0.0
 10
299.8746191996761
 20
-193.7399869925092
 30
0.0
 10
295.5088321523917
 20
-194.8439092327275
 30
0.0
 10
291.8600497412308
 20
-194.9996764552713
 30
0.0
 10
289.0025537241308
 20
-194.6496318303305
 30
0.0
 10
286.9290666119896
 20
-194.1576719484749
 30
0.0
 10
285.2707322675105
 20
-193.5490039580934
 30
0.0
 10
284.0003326397336
 20
-192.9621052943803
 30
0.0
 10
283.3839350887192
 20
-192.6236590102625
 30
0.0
 10
283.0665179286138
 20
-192.4461548493712
 30
0.0
  0
SPLINE
  5
170
330
1F
100
AcDbEntity
  8
Miura_Table_9580-01_2D
 62
     9
100
AcDbSpline
210
0.0
220
0.0
230
1.0
 70
    24
 71
     2
 72
     6
 73
     3
 74
     0
 42
0.0000000001
 43
0.0000000001
 40
0.0
 40
0.0
 40
0.0
 40
0.0064177164707695
 40
0.0064177164707695
 40
0.0064177164707695
 10
283.0665179286138
 20
-192.4461548493712
 30
0.0
 10
283.063744195912
 20
-192.4445413579359
 30
0.0
 10
283.0609704632102
 20
-192.4429278665007
 30
0.0
  0
SPLINE
  5
171
330
1F
100
AcDbEntity
  8
Miura_Table_9580-01_2D
 62
     9
100
AcDbSpline
210
0.0
220
0.0
230
1.0
 70
    24
 71
     2
 72
     6
 73
     3
 74
     0
 42
0.0000000001
 43
0.0000000001
 40
0.0
 40
0.0
 40
0.0
 40
203.6338520885392
 40
203.6338520885392
 40
203.6338520885392
 10
283.0609704632102
 20
-192.4429278665007
 30
0.0
 10
194.8849203821217
 20
-141.5344743641798
 30
0.0
 10
106.7088703010331
 20
-90.62602086185896
 30
0.0
  0
SPLINE
  5
172
330
1F
100
AcDbEntity
  8
Miura_Table_9580-01_2D
 62
     9
100
AcDbSpline
210
0.0
220
0.0
230
1.0
 70
    24
 71
     2
 72
     6
 73
     3
 74
     0
 42
0.0000000001
 43
0.0000000001
 40
0.0
 40
0.0
 40
0.0
 40
203.633708102275
 40
203.633708102275
 40
203.633708102275
 10
-106.7089949968013
 20
-90.62609285499516
 30
0.0
 10
-194.8849827300087
 20
-141.5345103607498
 30
0.0
 10
-283.0609704632161
 20
-192.4429278665045
 30
0.0
  0
SPLINE
  5
173
330
1F
100
AcDbEntity
  8
Miura_Table_9580-01_2D
 62
     9
100
AcDbSpline
210
0.0
220
0.0
230
1.0
 70
    24
 71
     2
 72
     6
 73
     3
 74
     0
 42
0.0000000001
 43
0.0000000001
 40
0.0
 40
0.0
 40
0.0
 40
0.006417716462647
 40
0.006417716462647
 40
0.006417716462647
 10
-283.0609704632161
 20
-192.4429278665045
 30
0.0
 10
-283.0637441959143
 20
-192.4445413579377
 30
0.0
 10
-283.0665179286125
 20
-192.4461548493709
 30
0.0
  0
SPLINE
  5
174
330
1F
100
AcDbEntity
  8
Miura_Table_9580-01_2D
 62
     9
100
AcDbSpline
210
0.0
220
0.0
230
1.0
 70
     8
 71
     3
 72
    21
 73
    17
 74
     0
 42
0.0000000001
 43
0.0000000001
 40
0.0
 40
0.0
 40
0.0
 40
0.0
 40
1.091200619832687
 40
2.108475076510281
 40
4.196394565958211
 40
6.382145182392561
 40
8.490982845351999
 40
12.81895580244923
 40
17.27666290000628
 40
21.9353699469448
 40
26.72660484100899
 40
31.59160549890699
 40
34.06202637132714
 40
35.29851844026844
 40
35.89107656027871
 40
36.5384794697291
 40
36.5384794697291
 40
36.5384794697291
 40
36.5384794697291
 10
-283.0665179286125
 20
-192.4461548493709
 30
0.0
 10
-283.3839425138713
 20
-192.6236441949457
 30
0.0
 10
-284.0003193883867
 20
-192.9621317346286
 30
0.0
 10
-285.2708451800208
 20
-193.5489242134122
 30
0.0
 10
-286.928848670329
 20
-194.1577223685699
 30
0.0
 10
-289.0028194346887
 20
-194.6496221063921
 30
0.0
 10
-291.8599002427345
 20
-194.9996295396973
 30
0.0
 10
-295.5089099694305
 20
-194.8439557456604
 30
0.0
 10
-299.8746461100136
 20
-193.7399671477191
 30
0.0
 10
-304.087874156935
 20
-191.7570138312738
 30
0.0
 10
-307.9775126510622
 20
-188.9608003372859
 30
0.0
 10
-310.8171127291389
 20
-186.0636990912938
 30
0.0
 10
-312.5451557124743
 20
-183.7849328132809
 30
0.0
 10
-313.3383929019992
 20
-182.5910057862807
 30
0.0
 10
-313.7740315529591
 20
-181.8897561516275
 30
0.0
 10
-313.9833774970575
 20
-181.5333396044964
 30
0.0
 10
-314.0920039379062
 20
-181.3468765236792
 30
0.0
  0
SPLINE
  5
175
330
1F
100
AcDbEntity
  8
Miura_Table_9580-01_2D
 62
     9
100
AcDbSpline
210
0.0
220
0.0
230
1.0
 70
    24
 71
     2
 72
     6
 73
     3
 74
     0
 42
0.0000000001
 43
0.0000000001
 40
0.0
 40
0.0
 40
0.0
 40
0.0049689727684098
 40
0.0049689727684098
 40
0.0049689727684098
 10
-314.0920039379062
 20
-181.3468765236792
 30
0.0
 10
-314.0932495822217
 20
-181.3447179029575
 30
0.0
 10
-314.0944952265372
 20
-181.3425592822358
 30
0.0
  0
SPLINE
  5
176
330
1F
100
AcDbEntity
  8
Miura_Table_9580-01_2D
 62
     9
100
AcDbSpline
210
0.0
220
0.0
230
1.0
 70
    24
 71
     2
 72
     6
 73
     3
 74
     0
 42
0.0000000001
 43
0.0000000001
 40
0.0
 40
0.0
 40
0.0
 40
0.0049999976354267
 40
0.0049999976354267
 40
0.0049999976354267
 10
-314.0944952265372
 20
-181.3425592822358
 30
0.0
 10
-314.095749580978
 20
-181.3403877780921
 30
0.0
 10
-314.0970039354188
 20
-181.3382162739484
 30
0.0
  0
SPLINE
  5
177
330
1F
100
AcDbEntity
  8
Miura_Table_9580-01_2D
 62
     9
100
AcDbSpline
210
0.0
220
0.0
230
1.0
 70
     8
 71
     3
 72
    21
 73
    17
 74
     0
 42
0.0000000001
 43
0.0000000001
 40
0.0
 40
0.0
 40
0.0
 40
0.0
 40
0.6474029094494481
 40
1.239961029460378
 40
2.476453098401701
 40
4.946873970821114
 40
9.81187462871941
 40
14.60310952278433
 40
19.26181656972226
 40
23.71952366727875
 40
28.04749662437724
 40
30.15633428733683
 40
32.34208490377019
 40
34.43000439321883
 40
35.4472788498954
 40
36.53847946972824
 40
36.53847946972824
 40
36.53847946972824
 40
36.53847946972824
 10
-314.0970039354188
 20
-181.3382162739484
 30
0.0
 10
-314.2041697051127
 20
-181.1509099550525
 30
0.0
 10
-314.4081705238486
 20
-180.7914071651861
 30
0.0
 10
-314.7974749608175
 20
-180.0634298001096
 30
0.0
 10
-315.4351875735201
 20
-178.7796580056423
 30
0.0
 10
-316.5442846490805
 20
-176.1436268969246
 30
0.0
 10
-317.6337947178627
 20
-172.2359841849917
 30
0.0
 10
-318.1103777557264
 20
-167.4693519956798
 30
0.0
 10
-317.7210600642156
 20
-162.8290446808474
 30
0.0
 10
-316.4941912444083
 20
-158.4962010702784
 30
0.0
 10
-314.804698410624
 20
-155.2583791980574
 30
0.0
 10
-313.0728028644198
 20
-152.9587373685085
 30
0.0
 10
-311.6100095530182
 20
-151.409024795902
 30
0.0
 10
-310.253720438639
 20
-150.2771991208055
 30
0.0
 10
-309.1102514725262
 20
-149.4704501020484
 30
0.0
 10
-308.5089496171577
 20
-149.1058573060992
 30
0.0
 10
-308.1965179244958
 20
-148.9197180622959
 30
0.0
  0
SPLINE
  5
178
330
1F
100
AcDbEntity
  8
Miura_Table_9580-01_2D
 62
     9
100
AcDbSpline
210
0.0
220
0.0
230
1.0
 70
    24
 71
     2
 72
     6
 73
     3
 74
     0
 42
0.0000000001
 43
0.0000000001
 40
0.0
 40
0.0
 40
0.0
 40
0.0064177164832391
 40
0.0064177164832391
 40
0.0064177164832391
 10
-308.1965179244958
 20
-148.9197180622959
 30
0.0
 10
-308.1937337335676
 20
-148.9181226850274
 30
0.0
 10
-308.1909495426394
 20
-148.9165273077588
 30
0.0
  0
SPLINE
  5
179
330
1F
100
AcDbEntity
  8
Miura_Table_9580-01_2D
 62
     9
100
AcDbSpline
210
0.0
220
0.0
230
1.0
 70
    24
 71
     2
 72
     6
 73
     3
 74
     0
 42
0.0000000001
 43
0.0000000001
 40
0.0
 40
0.0
 40
0.0
 40
203.633334284065
 40
203.633334284065
 40
203.633334284065
 10
-308.1909495426394
 20
-148.9165273077588
 30
0.0
 10
-220.0151347176209
 20
-98.00818413444615
 30
0.0
 10
-131.8393198926024
 20
-47.09984096113351
 30
0.0
  0
SPLINE
  5
17A
330
1F
100
AcDbEntity
  8
Miura_Table_9580-01_2D
 62
     9
100
AcDbSpline
210
0.0
220
0.0
230
1.0
 70
    24
 71
     2
 72
     6
 73
     3
 74
     0
 42
0.0000000001
 43
0.0000000001
 40
0.0
 40
0.0
 40
0.0
 40
203.6334854806771
 40
203.6334854806771
 40
203.6334854806771
 10
-25.13000115975137
 20
137.7259695286505
 30
0.0
 10
-25.12999011959596
 20
239.5427123514715
 30
0.0
 10
-25.12997907944055
 20
341.3594551742924
 30
0.0
  0
SPLINE
  5
17B
330
1F
100
AcDbEntity
  8
Miura_Table_9580-01_2D
 62
     9
100
AcDbSpline
210
0.0
220
0.0
230
1.0
 70
    24
 71
     2
 72
     6
 73
     3
 74
     0
 42
0.0000000001
 43
0.0000000001
 40
0.0
 40
0.0
 40
0.0
 40
0.0064177164454542
 40
0.0064177164454542
 40
0.0064177164454542
 10
-25.12997907944055
 20
341.3594551742924
 30
0.0
 10
-25.12998953766123
 20
341.3626640429804
 30
0.0
 10
-25.12999999588192
 20
341.3658729116685
 30
0.0
  0
SPLINE
  5
17C
330
1F
100
AcDbEntity
  8
Miura_Table_9580-01_2D
 62
     9
100
AcDbSpline
210
0.0
220
0.0
230
1.0
 70
     8
 71
     3
 72
    13
 73
     9
 74
     0
 42
0.0000000001
 43
0.0000000001
 40
0.0
 40
0.0
 40
0.0
 40
0.0
 40
1.091200619832775
 40
2.10847507651029
 40
4.196394565958102
 40
6.382145182392427
 40
8.490982845352077
 40
8.984989568363154
 40
8.984989568363154
 40
8.984989568363154
 40
8.984989568363154
 10
-25.12999999588192
 20
341.3658729116685
 30
0.0
 10
-25.12499798542376
 20
341.7295153390752
 30
0.0
 10
-25.10994835639485
 20
342.4325571405516
 30
0.0
 10
-24.982862653952
 20
343.8262609916644
 30
0.0
 10
-24.68109557694243
 20
345.566533211412
 30
0.0
 10
-24.07010786383125
 20
347.6085944489647
 30
0.0
 10
-23.44509578874273
 20
349.0799048899727
 30
0.0
 10
-23.0534562568129
 20
349.854028082467
 30
0.0
 10
-22.97729841530701
 20
350.0000000000001
 30
0.0
  0
SPLINE
  5
17D
330
1F
100
AcDbEntity
  8
Miura_Table_9580-01_2D
 62
     9
100
AcDbSpline
210
0.0
220
0.0
230
1.0
 70
     8
 71
     3
 72
    13
 73
     9
 74
     0
 42
0.0000000001
 43
0.0000000001
 40
27.5535299942328
 40
27.5535299942328
 40
27.5535299942328
 40
27.5535299942328
 40
28.04749662437724
 40
30.15633428733689
 40
32.34208490377012
 40
34.43000439321897
 40
35.44727884989555
 40
36.5384794697283
 40
36.5384794697283
 40
36.5384794697283
 40
36.5384794697283
 10
22.97732785300588
 20
349.9999999999999
 30
0.0
 10
23.05348381973699
 20
349.8540334705372
 30
0.0
 10
23.44514489188472
 20
349.0798773426955
 30
0.0
 10
24.0702491402908
 20
347.6083691988406
 30
0.0
 10
24.68094294103048
 20
345.5666967443788
 30
0.0
 10
24.98298817113027
 20
343.8262030788999
 30
0.0
 10
25.1099188327953
 20
342.4325553964306
 30
0.0
 10
25.12501452843844
 20
341.7295163163628
 30
0.0
 10
25.12999999588374
 20
341.3658729116687
 30
0.0
  0
SPLINE
  5
17E
330
1F
100
AcDbEntity
  8
Miura_Table_9580-01_2D
 62
     9
100
AcDbSpline
210
0.0
220
0.0
230
1.0
 70
    24
 71
     2
 72
     6
 73
     3
 74
     0
 42
0.0000000001
 43
0.0000000001
 40
0.0
 40
0.0
 40
0.0
 40
0.0064177164451132
 40
0.0064177164451132
 40
0.0064177164451132
 10
25.12999999588374
 20
341.3658729116687
 30
0.0
 10
25.12998953766282
 20
341.3626640429807
 30
0.0
 10
25.12997907944191
 20
341.3594551742927
 30
0.0
  0
SPLINE
  5
17F
330
1F
100
AcDbEntity
  8
Miura_Table_9580-01_2D
 62
     9
100
AcDbSpline
210
0.0
220
0.0
230
1.0
 70
    24
 71
     2
 72
     6
 73
     3
 74
     0
 42
0.0000000001
 43
0.0000000001
 40
0.0
 40
0.0
 40
0.0
 40
203.6333458706113
 40
203.6333458706113
 40
203.6333458706113
 10
25.12997907944191
 20
341.3594551742927
 30
0.0
 10
25.12999011959755
 20
239.5427821565047
 30
0.0
 10
25.13000115975319
 20
137.7261091387166
 30
0.0
  0
SPLINE
  5
180
330
1F
100
AcDbEntity
  8
Miura_Table_9580-01_2D
 62
     9
100
AcDbSpline
210
0.0
220
0.0
230
1.0
 70
     8
 71
     3
 72
    16
 73
    12
 74
     0
 42
0.0000000001
 43
0.0000000001
 40
0.0
 40
0.0
 40
0.0
 40
0.0
 40
1.953155402296996
 40
3.893592821767091
 40
7.84735514232088
 40
11.9104143171887
 40
16.082622185545
 40
20.363848991114
 40
24.75401733139342
 40
29.18049075032845
 40
33.71426896077073
 40
33.71426896077073
 40
33.71426896077073
 40
33.71426896077073
 10
-286.3087230316596
 20
-193.9142958386878
 30
0.0
 10
-286.9156267178905
 20
-194.1499454869296
 30
0.0
 10
-288.1494567485015
 20
-194.5580772387653
 30
0.0
 10
-290.707864262632
 20
-195.1196734491411
 30
0.0
 10
-294.0368118980405
 20
-195.3315484494746
 30
0.0
 10
-298.0829420215314
 20
-194.7969136693844
 30
0.0
 10
-302.0646242760886
 20
-193.495325964117
 30
0.0
 10
-305.8547574636132
 20
-191.4715439241441
 30
0.0
 10
-309.3255825422948
 20
-188.7993624809075
 30
0.0
 10
-312.3882665442488
 20
-185.5522113894082
 30
0.0
 10
-314.0824246679894
 20
-183.0815440883316
 30
0.0
 10
-314.8380452550214
 20
-181.7726981689822
 30
0.0
  0
SPLINE
  5
181
330
1F
100
AcDbEntity
  8
Miura_Table_9580-01_2D
 62
     9
100
AcDbSpline
210
0.0
220
0.0
230
1.0
 70
     8
 71
     3
 72
    16
 73
    12
 74
     0
 42
0.0000000001
 43
0.0000000001
 40
0.0
 40
0.0
 40
0.0
 40
0.0
 40
4.517138906835559
 40
8.979902650531569
 40
13.35193316073557
 40
17.61498633484288
 40
21.78720833930454
 40
25.85028218795404
 40
29.82218011624703
 40
31.76261295241024
 40
33.71577125458879
 40
33.71577125458879
 40
33.71577125458879
 40
33.71577125458879
 10
-314.8380452550214
 20
-181.7726981689822
 30
0.0
 10
-315.5909318047256
 20
-180.4687038469565
 30
0.0
 10
-316.8873942083294
 20
-177.7608058030238
 30
0.0
 10
-318.1683647831887
 20
-173.4841738243882
 30
0.0
 10
-318.7455854827676
 20
-169.1421649931907
 30
0.0
 10
-318.6051075665664
 20
-164.8601490892594
 30
0.0
 10
-317.7458513318606
 20
-160.7664089068302
 30
0.0
 10
-316.1866983587033
 20
-156.9880862217554
 30
0.0
 10
-314.3366275051685
 20
-154.2050377578926
 30
0.0
 10
-312.5669574980084
 20
-152.2657042355859
 30
0.0
 10
-311.5966152486717
 20
-151.4012487402476
 30
0.0
 10
-311.0890698787216
 20
-150.9934813211494
 30
0.0
  0
SPLINE
  5
182
330
1F
100
AcDbEntity
  8
Miura_Table_9580-01_2D
 62
     9
100
AcDbSpline
210
0.0
220
0.0
230
1.0
 70
     8
 71
     3
 72
    16
 73
    12
 74
     0
 42
0.0000000001
 43
0.0000000001
 40
0.0
 40
0.0
 40
0.0
 40
0.0
 40
1.953155402296355
 40
3.893592821766767
 40
7.847355142320411
 40
11.91041431718831
 40
16.08262218554454
 40
20.3638489911136
 40
24.75401733139299
 40
29.1804907503281
 40
33.7142689607704
 40
33.7142689607704
 40
33.7142689607704
 40
33.7142689607704
 10
311.0890678691057
 20
-150.993479551156
 30
0.0
 10
311.5965982939906
 20
-151.4012487369625
 30
0.0
 10
312.5669657744756
 20
-152.2657110115049
 30
0.0
 10
314.3325261163936
 20
-154.2005588067849
 30
0.0
 10
316.1804890668109
 20
-156.977574526749
 30
0.0
 10
317.7405468272564
 20
-160.7489433907572
 30
0.0
 10
318.6041799365184
 20
-164.8479752256353
 30
0.0
 10
318.7465998719399
 20
-169.1422178697456
 30
0.0
 10
318.1678353979178
 20
-173.4841312815921
 30
0.0
 10
316.887062063732
 20
-177.7600689768003
 30
0.0
 10
315.594480478572
 20
-180.4625866005253
 30
0.0
 10
314.8387969562918
 20
-181.771396184192
 30
0.0
  0
SPLINE
  5
183
330
1F
100
AcDbEntity
  8
Miura_Table_9580-01_2D
 62
     9
100
AcDbSpline
210
0.0
220
0.0
230
1.0
 70
     8
 71
     3
 72
    16
 73
    12
 74
     0
 42
0.0000000001
 43
0.0000000001
 40
0.0
 40
0.0
 40
0.0
 40
0.0
 40
4.517138906835712
 40
8.979902650531539
 40
13.35193316073553
 40
17.6149863348426
 40
21.78720833930516
 40
25.85028218795298
 40
29.82218011624681
 40
31.76261295240948
 40
33.71577125458974
 40
33.71577125458974
 40
33.71577125458974
 40
33.71577125458974
 10
314.8387969562918
 20
-181.771396184192
 30
0.0
 10
314.0859480218769
 20
-183.0754122234156
 30
0.0
 10
312.3890707267766
 20
-185.5521306219571
 30
0.0
 10
309.3258840780691
 20
-188.7997996705994
 30
0.0
 10
305.8542044765845
 20
-191.4706918756248
 30
0.0
 10
302.0756309662738
 20
-193.4900423834896
 30
0.0
 10
298.1007198544503
 20
-194.792774747091
 30
0.0
 10
294.049019938896
 20
-195.3316700064883
 30
0.0
 10
290.7137938424594
 20
-195.1209858804566
 30
0.0
 10
288.1494467421498
 20
-194.5580734590921
 30
0.0
 10
286.9156351980791
 20
-194.1499601684706
 30
0.0
 10
286.3087255693281
 20
-193.9142966940705
 30
0.0
  0
SPLINE
  5
184
330
1F
100
AcDbEntity
  8
Miura_Table_9580-01_2D
 62
     9
100
AcDbSpline
210
0.0
220
0.0
230
1.0
 70
     8
 71
     3
 72
    10
 73
     6
 74
     0
 42
0.0000000001
 43
0.0000000001
 40
0.0
 40
0.0
 40
0.0
 40
0.0
 40
1.953155402089815
 40
3.893592821353497
 40
5.336750120080978
 40
5.336750120080978
 40
5.336750120080978
 40
5.336750120080978
 10
-24.78034483744432
 20
344.9077753898437
 30
0.0
 10
-24.68097157609827
 20
345.5511942238919
 30
0.0
 10
-24.41750902597141
 20
346.8237882502723
 30
0.0
 10
-23.8783175193817
 20
348.5215447053771
 30
0.0
 10
-23.44380851171397
 20
349.5630802571613
 30
0.0
 10
-23.24254393188538
 20
349.9999999999999
 30
0.0
  0
SPLINE
  5
185
330
1F
100
AcDbEntity
  8
Miura_Table_9580-01_2D
 62
     9
100
AcDbSpline
210
0.0
220
0.0
230
1.0
 70
     8
 71
     3
 72
    10
 73
     6
 74
     0
 42
0.0000000001
 43
0.0000000001
 40
28.37902572485452
 40
28.37902572485452
 40
28.37902572485452
 40
28.37902572485452
 40
29.82218011666214
 40
31.76261295261828
 40
33.71577125458813
 40
33.71577125458813
 40
33.71577125458813
 40
33.71577125458813
 10
23.24254757114361
 20
350.0000000000001
 30
0.0
 10
23.44381223541554
 20
349.5630840453765
 30
0.0
 10
23.87832121672776
 20
348.5215551300653
 30
0.0
 10
24.41751075585944
 20
346.8237776946791
 30
0.0
 10
24.68098005059528
 20
345.5512089087209
 30
0.0
 10
24.78034430939442
 20
344.9077780152224
 30
0.0
  0
ENDSEC
  0
SECTION
  2
OBJECTS
  0
DICTIONARY
  5
C
330
0
100
AcDbDictionary
281
     1
  3
ACAD_GROUP
350
D
  3
ACAD_LAYOUT
350
1A
  3
ACAD_MLEADERSTYLE
350
187
  3
ACAD_MLINESTYLE
350
17
  3
ACAD_PLOTSETTINGS
350
19
  3
ACAD_PLOTSTYLENAME
350
E
  3
ACAD_TABLESTYLE
350
186
  3
ACAD_VISUALSTYLE
350
2A
  0
DICTIONARY
  5
D
102
{ACAD_REACTORS
330
C
102
}
330
C
100
AcDbDictionary
281
     1
  0
DICTIONARY
  5
1A
102
{ACAD_REACTORS
330
C
102
}
330
C
100
AcDbDictionary
281
     1
  3
Layout1
350
1E
  3
Layout2
350
26
  3
Model
350
22
  0
DICTIONARY
  5
187
102
{ACAD_REACTORS
330
C
102
}
330
C
100
AcDbDictionary
281
     1
  0
DICTIONARY
  5
17
102
{ACAD_REACTORS
330
C
102
}
330
C
100
AcDbDictionary
281
     1
  3
Standard
350
18
  0
DICTIONARY
  5
19
102
{ACAD_REACTORS
330
C
102
}
330
C
100
AcDbDictionary
281
     1
  0
ACDBDICTIONARYWDFLT
  5
E
102
{ACAD_REACTORS
330
C
102
}
330
C
100
AcDbDictionary
281
     1
  3
Normal
350
F
100
AcDbDictionaryWithDefault
340
F
  0
DICTIONARY
  5
186
102
{ACAD_REACTORS
330
C
102
}
330
C
100
AcDbDictionary
281
     1
  0
DICTIONARY
  5
2A
102
{ACAD_REACTORS
330
C
102
}
330
C
100
AcDbDictionary
281
     1
  3
2dWireframe
350
2F
  3
3D Hidden
350
31
  3
3dWireframe
350
30
  3
Basic
350
32
  3
Brighten
350
36
  3
ColorChange
350
3A
  3
Conceptual
350
34
  3
Dim
350
35
  3
Facepattern
350
39
  3
Flat
350
2B
  3
FlatWithEdges
350
2C
  3
Gouraud
350
2D
  3
GouraudWithEdges
350
2E
  3
Linepattern
350
38
  3
Realistic
350
33
  3
Thicken
350
37
  0
LAYOUT
  5
1E
102
{ACAD_REACTORS
330
1A
102
}
330
1A
100
AcDbPlotSettings
  1

  2
none_device
  4

  6

 40
0.0
 41
0.0
 42
0.0
 43
0.0
 44
0.0
 45
0.0
 46
0.0
 47
0.0
 48
0.0
 49
0.0
140
0.0
141
0.0
142
1.0
143
1.0
 70
   688
 72
     0
 73
     0
 74
     5
  7

 75
    16
 76
     0
 77
     2
 78
   300
147
1.0
148
0.0
149
0.0
100
AcDbLayout
  1
Layout1
 70
     1
 71
     1
 10
0.0
 20
0.0
 11
12.0
 21
9.0
 12
0.0
 22
0.0
 32
0.0
 14
1.000000000000000E+20
 24
1.000000000000000E+20
 34
1.000000000000000E+20
 15
-1.000000000000000E+20
 25
-1.000000000000000E+20
 35
-1.000000000000000E+20
146
0.0
 13
0.0
 23
0.0
 33
0.0
 16
1.0
 26
0.0
 36
0.0
 17
0.0
 27
1.0
 37
0.0
 76
     0
330
1B
  0
LAYOUT
  5
26
102
{ACAD_REACTORS
330
1A
102
}
330
1A
100
AcDbPlotSettings
  1

  2
none_device
  4

  6

 40
0.0
 41
0.0
 42
0.0
 43
0.0
 44
0.0
 45
0.0
 46
0.0
 47
0.0
 48
0.0
 49
0.0
140
0.0
141
0.0
142
1.0
143
1.0
 70
   688
 72
     0
 73
     0
 74
     5
  7

 75
    16
 76
     0
 77
     2
 78
   300
147
1.0
148
0.0
149
0.0
100
AcDbLayout
  1
Layout2
 70
     1
 71
     2
 10
0.0
 20
0.0
 11
0.0
 21
0.0
 12
0.0
 22
0.0
 32
0.0
 14
0.0
 24
0.0
 34
0.0
 15
0.0
 25
0.0
 35
0.0
146
0.0
 13
0.0
 23
0.0
 33
0.0
 16
1.0
 26
0.0
 36
0.0
 17
0.0
 27
1.0
 37
0.0
 76
     0
330
23
  0
LAYOUT
  5
22
102
{ACAD_REACTORS
330
1A
102
}
330
1A
100
AcDbPlotSettings
  1

  2
none_device
  4

  6

 40
0.0
 41
0.0
 42
0.0
 43
0.0
 44
0.0
 45
0.0
 46
0.0
 47
0.0
 48
0.0
 49
0.0
140
0.0
141
0.0
142
1.0
143
1.0
 70
  1712
 72
     0
 73
     0
 74
     0
  7

 75
     0
 76
     0
 77
     2
 78
   300
147
1.0
148
0.0
149
0.0
100
AcDbLayout
  1
Model
 70
     1
 71
     0
 10
0.0
 20
0.0
 11
12.0
 21
9.0
 12
0.0
 22
0.0
 32
0.0
 14
-349.9999999999999
 24
-350.0
 34
0.0
 15
2355.802436807888
 25
1582.537243236149
 35
0.0
146
0.0
 13
0.0
 23
0.0
 33
0.0
 16
1.0
 26
0.0
 36
0.0
 17
0.0
 27
1.0
 37
0.0
 76
     0
330
1F
331
29
  0
MLINESTYLE
  5
18
102
{ACAD_REACTORS
330
17
102
}
330
17
100
AcDbMlineStyle
  2
Standard
 70
     0
  3

 62
   256
 51
90.0
 52
90.0
 71
     2
 49
0.5
 62
   256
  6
BYLAYER
 49
-0.5
 62
   256
  6
BYLAYER
  0
ACDBPLACEHOLDER
  5
F
102
{ACAD_REACTORS
330
E
102
}
330
E
  0
VISUALSTYLE
  5
2F
102
{ACAD_REACTORS
330
2A
102
}
330
2A
100
AcDbVisualStyle
  2
2dWireframe
 70
     4
 71
     0
 72
     2
 73
     0
 90
        0
 40
-0.6
 41
-30.0
 62
     5
 63
     7
421
 16777215
 74
     1
 91
        4
 64
     7
 65
   257
 75
     1
175
     1
 42
1.0
 92
        0
 66
   257
 43
1.0
 76
     1
 77
     6
 78
     2
 67
     7
 79
     5
170
     0
171
     0
290
     0
174
     0
 93
        1
 44
0.0
173
     0
291
     0
 45
0.0
1001
ACAD
1000
AcDbSavedByObjectVersion
1070
     0
  0
VISUALSTYLE
  5
31
102
{ACAD_REACTORS
330
2A
102
}
330
2A
100
AcDbVisualStyle
  2
3D Hidden
 70
     6
 71
     1
 72
     2
 73
     2
 90
        0
 40
-0.6
 41
-30.0
 62
     5
 63
     7
421
 16777215
 74
     2
 91
        2
 64
     7
 65
   257
 75
     2
175
     1
 42
40.0
 92
        0
 66
   257
 43
1.0
 76
     1
 77
     6
 78
     2
 67
     7
 79
     3
170
     0
171
     0
290
     0
174
     0
 93
        1
 44
0.0
173
     0
291
     0
 45
0.0
1001
ACAD
1000
AcDbSavedByObjectVersion
1070
     0
  0
VISUALSTYLE
  5
30
102
{ACAD_REACTORS
330
2A
102
}
330
2A
100
AcDbVisualStyle
  2
3dWireframe
 70
     5
 71
     0
 72
     2
 73
     0
 90
        0
 40
-0.6
 41
-30.0
 62
     5
 63
     7
421
 16777215
 74
     1
 91
        4
 64
     7
 65
   257
 75
     1
175
     1
 42
1.0
 92
        0
 66
   257
 43
1.0
 76
     1
 77
     6
 78
     2
 67
     7
 79
     5
170
     0
171
     0
290
     0
174
     0
 93
        1
 44
0.0
173
     0
291
     0
 45
0.0
1001
ACAD
1000
AcDbSavedByObjectVersion
1070
     0
  0
VISUALSTYLE
  5
32
102
{ACAD_REACTORS
330
2A
102
}
330
2A
100
AcDbVisualStyle
  2
Basic
 70
     7
 71
     1
 72
     0
 73
     1
 90
        0
 40
-0.6
 41
-30.0
 62
     5
 63
     7
421
 16777215
 74
     0
 91
        4
 64
     7
 65
   257
 75
     1
175
     1
 42
1.0
 92
        8
 66
     7
 43
1.0
 76
     1
 77
     6
 78
     2
 67
     7
 79
     5
170
     0
171
     0
290
     0
174
     0
 93
        1
 44
0.0
173
     0
291
     1
 45
0.0
1001
ACAD
1000
AcDbSavedByObjectVersion
1070
     0
  0
VISUALSTYLE
  5
36
102
{ACAD_REACTORS
330
2A
102
}
330
2A
100
AcDbVisualStyle
  2
Brighten
 70
    12
 71
     2
 72
     2
 73
     0
 90
        0
 40
-0.6
 41
-30.0
 62
     5
 63
     7
421
 16777215
 74
     1
 91
        4
 64
     7
 65
   257
 75
     1
175
     1
 42
1.0
 92
        8
 66
     7
 43
1.0
 76
     1
 77
     6
 78
     2
 67
     7
 79
     5
170
     0
171
     0
290
     0
174
     0
 93
        1
 44
50.0
173
     0
291
     1
 45
0.0
1001
ACAD
1000
AcDbSavedByObjectVersion
1070
     0
  0
VISUALSTYLE
  5
3A
102
{ACAD_REACTORS
330
2A
102
}
330
2A
100
AcDbVisualStyle
  2
ColorChange
 70
    16
 71
     2
 72
     2
 73
     3
 90
        0
 40
-0.6
 41
-30.0
 62
     5
 63
     8
421
  8421504
 74
     1
 91
        4
 64
     7
 65
   257
 75
     1
175
     1
 42
1.0
 92
        8
 66
     8
424
  8421504
 43
1.0
 76
     1
 77
     6
 78
     2
 67
     7
 79
     5
170
     0
171
     0
290
     0
174
     0
 93
        1
 44
0.0
173
     0
291
     1
 45
0.0
1001
ACAD
1000
AcDbSavedByObjectVersion
1070
     0
  0
VISUALSTYLE
  5
34
102
{ACAD_REACTORS
330
2A
102
}
330
2A
100
AcDbVisualStyle
  2
Conceptual
 70
     9
 71
     3
 72
     2
 73
     0
 90
        0
 40
-0.6
 41
-30.0
 62
     5
 63
     7
421
 16777215
 74
     2
 91
        2
 64
     7
 65
   257
 75
     1
175
     1
 42
40.0
 92
        8
 66
     7
 43
1.0
 76
     1
 77
     6
 78
     2
 67
     7
 79
     3
170
     0
171
     0
290
     0
174
     0
 93
        1
 44
0.0
173
     0
291
     0
 45
0.0
1001
ACAD
1000
AcDbSavedByObjectVersion
1070
     0
  0
VISUALSTYLE
  5
35
102
{ACAD_REACTORS
330
2A
102
}
330
2A
100
AcDbVisualStyle
  2
Dim
 70
    11
 71
     2
 72
     2
 73
     0
 90
        0
 40
-0.6
 41
-30.0
 62
     5
 63
     7
421
 16777215
 74
     1
 91
        4
 64
     7
 65
   257
 75
     1
175
     1
 42
1.0
 92
        8
 66
     7
 43
1.0
 76
     1
 77
     6
 78
     2
 67
     7
 79
     5
170
     0
171
     0
290
     0
174
     0
 93
        1
 44
-50.0
173
     0
291
     1
 45
0.0
1001
ACAD
1000
AcDbSavedByObjectVersion
1070
     0
  0
VISUALSTYLE
  5
39
102
{ACAD_REACTORS
330
2A
102
}
330
2A
100
AcDbVisualStyle
  2
Facepattern
 70
    15
 71
     2
 72
     2
 73
     0
 90
        0
 40
-0.6
 41
-30.0
 62
     5
 63
     7
421
 16777215
 74
     1
 91
        4
 64
     7
 65
   257
 75
     1
175
     1
 42
1.0
 92
        8
 66
     7
 43
1.0
 76
     1
 77
     6
 78
     2
 67
     7
 79
     5
170
     0
171
     0
290
     0
174
     0
 93
        1
 44
0.0
173
     0
291
     1
 45
0.0
1001
ACAD
1000
AcDbSavedByObjectVersion
1070
     0
  0
VISUALSTYLE
  5
2B
102
{ACAD_REACTORS
330
2A
102
}
330
2A
100
AcDbVisualStyle
  2
Flat
 70
     0
 71
     2
 72
     1
 73
     1
 90
        2
 40
-0.6
 41
30.0
 62
     5
 63
     7
421
 16777215
 74
     0
 91
        4
 64
     7
 65
   257
 75
     1
175
     1
 42
1.0
 92
        8
 66
     7
 43
1.0
 76
     1
 77
     6
 78
     2
 67
     7
 79
     5
170
     0
171
     0
290
     0
174
     0
 93
       13
 44
0.0
173
     0
291
     1
 45
0.0
1001
ACAD
1000
AcDbSavedByObjectVersion
1070
     0
  0
VISUALSTYLE
  5
2C
102
{ACAD_REACTORS
330
2A
102
}
330
2A
100
AcDbVisualStyle
  2
FlatWithEdges
 70
     1
 71
     2
 72
     1
 73
     1
 90
        2
 40
-0.6
 41
30.0
 62
     5
 63
     7
421
 16777215
 74
     1
 91
        4
 64
     7
 65
   257
 75
     1
175
     1
 42
1.0
 92
        0
 66
   257
 43
1.0
 76
     1
 77
     6
 78
     2
 67
     7
 79
     5
170
     0
171
     0
290
     0
174
     0
 93
       13
 44
0.0
173
     0
291
     1
 45
0.0
1001
ACAD
1000
AcDbSavedByObjectVersion
1070
     0
  0
VISUALSTYLE
  5
2D
102
{ACAD_REACTORS
330
2A
102
}
330
2A
100
AcDbVisualStyle
  2
Gouraud
 70
     2
 71
     2
 72
     2
 73
     1
 90
        2
 40
-0.6
 41
30.0
 62
     5
 63
     7
421
 16777215
 74
     0
 91
        4
 64
     7
 65
   257
 75
     1
175
     1
 42
1.0
 92
        0
 66
     7
 43
1.0
 76
     1
 77
     6
 78
     2
 67
     7
 79
     5
170
     0
171
     0
290
     0
174
     0
 93
       13
 44
0.0
173
     0
291
     1
 45
0.0
1001
ACAD
1000
AcDbSavedByObjectVersion
1070
     0
  0
VISUALSTYLE
  5
2E
102
{ACAD_REACTORS
330
2A
102
}
330
2A
100
AcDbVisualStyle
  2
GouraudWithEdges
 70
     3
 71
     2
 72
     2
 73
     1
 90
        2
 40
-0.6
 41
30.0
 62
     5
 63
     7
421
 16777215
 74
     1
 91
        4
 64
     7
 65
   257
 75
     1
175
     1
 42
1.0
 92
        0
 66
   257
 43
1.0
 76
     1
 77
     6
 78
     2
 67
     7
 79
     5
170
     0
171
     0
290
     0
174
     0
 93
       13
 44
0.0
173
     0
291
     1
 45
0.0
1001
ACAD
1000
AcDbSavedByObjectVersion
1070
     0
  0
VISUALSTYLE
  5
38
102
{ACAD_REACTORS
330
2A
102
}
330
2A
100
AcDbVisualStyle
  2
Linepattern
 70
    14
 71
     2
 72
     2
 73
     0
 90
        0
 40
-0.6
 41
-30.0
 62
     5
 63
     7
421
 16777215
 74
     1
 91
        4
 64
     7
 65
   257
 75
     7
175
     7
 42
1.0
 92
        8
 66
     7
 43
1.0
 76
     1
 77
     6
 78
     2
 67
     7
 79
     5
170
     0
171
     0
290
     0
174
     0
 93
        1
 44
0.0
173
     0
291
     1
 45
0.0
1001
ACAD
1000
AcDbSavedByObjectVersion
1070
     0
  0
VISUALSTYLE
  5
33
102
{ACAD_REACTORS
330
2A
102
}
330
2A
100
AcDbVisualStyle
  2
Realistic
 70
     8
 71
     2
 72
     2
 73
     0
 90
        0
 40
-0.6
 41
-30.0
 62
     5
 63
     7
421
 16777215
 74
     1
 91
        0
 64
     7
 65
   257
 75
     1
175
     1
 42
1.0
 92
        8
 66
     8
424
  7895160
 43
1.0
 76
     1
 77
     6
 78
     2
 67
     7
 79
     5
170
     0
171
     0
290
     0
174
     0
 93
       13
 44
0.0
173
     0
291
     0
 45
0.0
1001
ACAD
1000
AcDbSavedByObjectVersion
1070
     0
  0
VISUALSTYLE
  5
37
102
{ACAD_REACTORS
330
2A
102
}
330
2A
100
AcDbVisualStyle
  2
Thicken
 70
    13
 71
     2
 72
     2
 73
     0
 90
        0
 40
-0.6
 41
-30.0
 62
     5
 63
     7
421
 16777215
 74
     1
 91
        4
 64
     7
 65
   257
 75
     1
175
     1
 42
1.0
 92
       12
 66
     7
 43
1.0
 76
     1
 77
     6
 78
     2
 67
     7
 79
     5
170
     0
171
     0
290
     0
174
     0
 93
        1
 44
0.0
173
     0
291
     1
 45
0.0
1001
ACAD
1000
AcDbSavedByObjectVersion
1070
     0
  0
ENDSEC
  0
EOF
