  0
SECTION
  2
HEADER
  9
$ACADVER
  1
AC1015
  9
$ACADMAINTVER
 70
    20
  9
$DWGCODEPAGE
  3
ANSI_1252
  9
$INSBASE
 10
0.0
 20
0.0
 30
0.0
  9
$EXTMIN
 10
-499.9994514732062
 20
-500.0001477286898
 30
0.0
  9
$EXTMAX
 10
3459.502324986271
 20
1848.033841069164
 30
0.0
  9
$LIMMIN
 10
0.0
 20
0.0
  9
$LIMMAX
 10
12.0
 20
9.0
  9
$ORTHOMODE
 70
     0
  9
$REGENMODE
 70
     1
  9
$FILLMODE
 70
     1
  9
$QTEXTMODE
 70
     0
  9
$MIRRTEXT
 70
     1
  9
$LTSCALE
 40
1.0
  9
$ATTMODE
 70
     1
  9
$TEXTSIZE
 40
0.2
  9
$TRACEWID
 40
0.05
  9
$TEXTSTYLE
  7
Standard
  9
$CLAYER
  8
Table_Miura_9555-01_2D
  9
$CELTYPE
  6
ByLayer
  9
$CECOLOR
 62
   256
  9
$CELTSCALE
 40
1.0
  9
$DISPSILH
 70
     0
  9
$DIMSCALE
 40
1.0
  9
$DIMASZ
 40
0.18
  9
$DIMEXO
 40
0.0625
  9
$DIMDLI
 40
0.38
  9
$DIMRND
 40
0.0
  9
$DIMDLE
 40
0.0
  9
$DIMEXE
 40
0.18
  9
$DIMTP
 40
0.0
  9
$DIMTM
 40
0.0
  9
$DIMTXT
 40
0.18
  9
$DIMCEN
 40
0.09
  9
$DIMTSZ
 40
0.0
  9
$DIMTOL
 70
     0
  9
$DIMLIM
 70
     0
  9
$DIMTIH
 70
     1
  9
$DIMTOH
 70
     1
  9
$DIMSE1
 70
     0
  9
$DIMSE2
 70
     0
  9
$DIMTAD
 70
     0
  9
$DIMZIN
 70
     0
  9
$DIMBLK
  1

  9
$DIMASO
 70
     1
  9
$DIMSHO
 70
     1
  9
$DIMPOST
  1

  9
$DIMAPOST
  1

  9
$DIMALT
 70
     0
  9
$DIMALTD
 70
     2
  9
$DIMALTF
 40
25.4
  9
$DIMLFAC
 40
1.0
  9
$DIMTOFL
 70
     0
  9
$DIMTVP
 40
0.0
  9
$DIMTIX
 70
     0
  9
$DIMSOXD
 70
     0
  9
$DIMSAH
 70
     0
  9
$DIMBLK1
  1

  9
$DIMBLK2
  1

  9
$DIMSTYLE
  2
Standard
  9
$DIMCLRD
 70
     0
  9
$DIMCLRE
 70
     0
  9
$DIMCLRT
 70
     0
  9
$DIMTFAC
 40
1.0
  9
$DIMGAP
 40
0.09
  9
$DIMJUST
 70
     0
  9
$DIMSD1
 70
     0
  9
$DIMSD2
 70
     0
  9
$DIMTOLJ
 70
     1
  9
$DIMTZIN
 70
     0
  9
$DIMALTZ
 70
     0
  9
$DIMALTTZ
 70
     0
  9
$DIMUPT
 70
     0
  9
$DIMDEC
 70
     4
  9
$DIMTDEC
 70
     4
  9
$DIMALTU
 70
     2
  9
$DIMALTTD
 70
     2
  9
$DIMTXSTY
  7
Standard
  9
$DIMAUNIT
 70
     0
  9
$DIMADEC
 70
     0
  9
$DIMALTRND
 40
0.0
  9
$DIMAZIN
 70
     0
  9
$DIMDSEP
 70
    46
  9
$DIMATFIT
 70
     3
  9
$DIMFRAC
 70
     0
  9
$DIMLDRBLK
  1

  9
$DIMLUNIT
 70
     2
  9
$DIMLWD
 70
    -2
  9
$DIMLWE
 70
    -2
  9
$DIMTMOVE
 70
     2
  9
$LUNITS
 70
     2
  9
$LUPREC
 70
     3
  9
$SKETCHINC
 40
0.1
  9
$FILLETRAD
 40
0.5
  9
$AUNITS
 70
     0
  9
$AUPREC
 70
     0
  9
$MENU
  1
.
  9
$ELEVATION
 40
0.0
  9
$PELEVATION
 40
0.0
  9
$THICKNESS
 40
0.0
  9
$LIMCHECK
 70
     0
  9
$CHAMFERA
 40
0.5
  9
$CHAMFERB
 40
0.5
  9
$CHAMFERC
 40
1.0
  9
$CHAMFERD
 40
0.0
  9
$SKPOLY
 70
     0
  9
$TDCREATE
 40
2457213.716917245
  9
$TDUCREATE
 40
2457213.633583912
  9
$TDUPDATE
 40
2457213.718548368
  9
$TDUUPDATE
 40
2457213.635215035
  9
$TDINDWG
 40
0.0001288079
  9
$TDUSRTIMER
 40
0.0001288079
  9
$USRTIMER
 70
     1
  9
$ANGBASE
 50
0.0
  9
$ANGDIR
 70
     0
  9
$PDMODE
 70
     0
  9
$PDSIZE
 40
0.0
  9
$PLINEWID
 40
0.0
  9
$SPLFRAME
 70
     0
  9
$SPLINETYPE
 70
     6
  9
$SPLINESEGS
 70
     8
  9
$HANDSEED
  5
194
  9
$SURFTAB1
 70
     6
  9
$SURFTAB2
 70
     6
  9
$SURFTYPE
 70
     6
  9
$SURFU
 70
     6
  9
$SURFV
 70
     6
  9
$UCSBASE
  2

  9
$UCSNAME
  2

  9
$UCSORG
 10
0.0
 20
0.0
 30
0.0
  9
$UCSXDIR
 10
1.0
 20
0.0
 30
0.0
  9
$UCSYDIR
 10
0.0
 20
1.0
 30
0.0
  9
$UCSORTHOREF
  2

  9
$UCSORTHOVIEW
 70
     0
  9
$UCSORGTOP
 10
0.0
 20
0.0
 30
0.0
  9
$UCSORGBOTTOM
 10
0.0
 20
0.0
 30
0.0
  9
$UCSORGLEFT
 10
0.0
 20
0.0
 30
0.0
  9
$UCSORGRIGHT
 10
0.0
 20
0.0
 30
0.0
  9
$UCSORGFRONT
 10
0.0
 20
0.0
 30
0.0
  9
$UCSORGBACK
 10
0.0
 20
0.0
 30
0.0
  9
$PUCSBASE
  2

  9
$PUCSNAME
  2

  9
$PUCSORG
 10
0.0
 20
0.0
 30
0.0
  9
$PUCSXDIR
 10
1.0
 20
0.0
 30
0.0
  9
$PUCSYDIR
 10
0.0
 20
1.0
 30
0.0
  9
$PUCSORTHOREF
  2

  9
$PUCSORTHOVIEW
 70
     0
  9
$PUCSORGTOP
 10
0.0
 20
0.0
 30
0.0
  9
$PUCSORGBOTTOM
 10
0.0
 20
0.0
 30
0.0
  9
$PUCSORGLEFT
 10
0.0
 20
0.0
 30
0.0
  9
$PUCSORGRIGHT
 10
0.0
 20
0.0
 30
0.0
  9
$PUCSORGFRONT
 10
0.0
 20
0.0
 30
0.0
  9
$PUCSORGBACK
 10
0.0
 20
0.0
 30
0.0
  9
$USERI1
 70
     0
  9
$USERI2
 70
     0
  9
$USERI3
 70
     0
  9
$USERI4
 70
     0
  9
$USERI5
 70
     0
  9
$USERR1
 40
0.0
  9
$USERR2
 40
0.0
  9
$USERR3
 40
0.0
  9
$USERR4
 40
0.0
  9
$USERR5
 40
0.0
  9
$WORLDVIEW
 70
     1
  9
$SHADEDGE
 70
     3
  9
$SHADEDIF
 70
    70
  9
$TILEMODE
 70
     1
  9
$MAXACTVP
 70
    64
  9
$PINSBASE
 10
0.0
 20
0.0
 30
0.0
  9
$PLIMCHECK
 70
     0
  9
$PEXTMIN
 10
1.000000000000000E+20
 20
1.000000000000000E+20
 30
1.000000000000000E+20
  9
$PEXTMAX
 10
-1.000000000000000E+20
 20
-1.000000000000000E+20
 30
-1.000000000000000E+20
  9
$PLIMMIN
 10
0.0
 20
0.0
  9
$PLIMMAX
 10
12.0
 20
9.0
  9
$UNITMODE
 70
     0
  9
$VISRETAIN
 70
     1
  9
$PLINEGEN
 70
     0
  9
$PSLTSCALE
 70
     1
  9
$TREEDEPTH
 70
  3020
  9
$CMLSTYLE
  2
Standard
  9
$CMLJUST
 70
     0
  9
$CMLSCALE
 40
1.0
  9
$PROXYGRAPHICS
 70
     1
  9
$MEASUREMENT
 70
     0
  9
$CELWEIGHT
370
    -1
  9
$ENDCAPS
280
     0
  9
$JOINSTYLE
280
     0
  9
$LWDISPLAY
290
     0
  9
$INSUNITS
 70
     4
  9
$HYPERLINKBASE
  1

  9
$STYLESHEET
  1

  9
$XEDIT
290
     1
  9
$CEPSNTYPE
380
     0
  9
$PSTYLEMODE
290
     1
  9
$FINGERPRINTGUID
  2
{9D35B6BB-F9CA-469B-B9D7-AFC7239FCF6C}
  9
$VERSIONGUID
  2
{FAEB1C32-E019-11D5-929B-00C0DF256EC4}
  9
$EXTNAMES
290
     1
  9
$PSVPSCALE
 40
0.0
  9
$OLESTARTUP
290
     0
  0
ENDSEC
  0
SECTION
  2
CLASSES
  0
CLASS
  1
ACDBDICTIONARYWDFLT
  2
AcDbDictionaryWithDefault
  3
ObjectDBX Classes
 90
        0
280
     0
281
     0
  0
CLASS
  1
VISUALSTYLE
  2
AcDbVisualStyle
  3
ObjectDBX Classes
 90
     4095
280
     0
281
     0
  0
CLASS
  1
MATERIAL
  2
AcDbMaterial
  3
ObjectDBX Classes
 90
     1024
280
     0
281
     0
  0
CLASS
  1
TABLESTYLE
  2
AcDbTableStyle
  3
ObjectDBX Classes
 90
     4095
280
     0
281
     0
  0
CLASS
  1
DICTIONARYVAR
  2
AcDbDictionaryVar
  3
ObjectDBX Classes
 90
        0
280
     0
281
     0
  0
CLASS
  1
ACDBPLACEHOLDER
  2
AcDbPlaceHolder
  3
ObjectDBX Classes
 90
        0
280
     0
281
     0
  0
CLASS
  1
LAYOUT
  2
AcDbLayout
  3
ObjectDBX Classes
 90
        0
280
     0
281
     0
  0
ENDSEC
  0
SECTION
  2
TABLES
  0
TABLE
  2
VPORT
  5
8
330
0
100
AcDbSymbolTable
 70
     1
  0
VPORT
  5
29
330
8
100
AcDbSymbolTableRecord
100
AcDbViewportTableRecord
  2
*Active
 70
     0
 10
0.0
 20
0.0
 11
1.0
 21
1.0
 12
2008.769238756979
 22
674.0168466702373
 13
0.0
 23
0.0
 14
0.5
 24
0.5
 15
0.5
 25
0.5
 16
0.0
 26
0.0
 36
1.0
 17
0.0
 27
0.0
 37
0.0
 40
2395.096073917084
 41
2.128074639525021
 42
50.0
 43
0.0
 44
0.0
 50
0.0
 51
0.0
 71
     0
 72
   100
 73
     1
 74
     3
 75
     0
 76
     0
 77
     0
 78
     0
281
     0
 65
     1
110
0.0
120
0.0
130
0.0
111
1.0
121
0.0
131
0.0
112
0.0
122
1.0
132
0.0
 79
     0
146
0.0
  0
ENDTAB
  0
TABLE
  2
LTYPE
  5
5
330
0
100
AcDbSymbolTable
 70
     1
  0
LTYPE
  5
14
330
5
100
AcDbSymbolTableRecord
100
AcDbLinetypeTableRecord
  2
ByBlock
 70
     0
  3

 72
    65
 73
     0
 40
0.0
  0
LTYPE
  5
15
330
5
100
AcDbSymbolTableRecord
100
AcDbLinetypeTableRecord
  2
ByLayer
 70
     0
  3

 72
    65
 73
     0
 40
0.0
  0
LTYPE
  5
16
330
5
100
AcDbSymbolTableRecord
100
AcDbLinetypeTableRecord
  2
Continuous
 70
     0
  3
Solid line
 72
    65
 73
     0
 40
0.0
  0
ENDTAB
  0
TABLE
  2
LAYER
  5
2
330
0
100
AcDbSymbolTable
 70
     2
  0
LAYER
  5
10
330
2
100
AcDbSymbolTableRecord
100
AcDbLayerTableRecord
  2
0
 70
     0
 62
     7
  6
Continuous
370
    -3
390
F
  0
LAYER
  5
3B
330
2
100
AcDbSymbolTableRecord
100
AcDbLayerTableRecord
  2
Table_Miura_9555-01_2D
 70
     0
 62
     7
  6
Continuous
370
    -3
390
F
  0
ENDTAB
  0
TABLE
  2
STYLE
  5
3
330
0
100
AcDbSymbolTable
 70
     1
  0
STYLE
  5
11
330
3
100
AcDbSymbolTableRecord
100
AcDbTextStyleTableRecord
  2
Standard
 70
     0
 40
0.0
 41
1.0
 50
0.0
 71
     0
 42
0.2
  3
txt
  4

  0
ENDTAB
  0
TABLE
  2
VIEW
  5
6
330
0
100
AcDbSymbolTable
 70
     0
  0
ENDTAB
  0
TABLE
  2
UCS
  5
7
330
0
100
AcDbSymbolTable
 70
     0
  0
ENDTAB
  0
TABLE
  2
APPID
  5
9
330
0
100
AcDbSymbolTable
 70
     1
  0
APPID
  5
12
330
9
100
AcDbSymbolTableRecord
100
AcDbRegAppTableRecord
  2
ACAD
 70
     0
  0
ENDTAB
  0
TABLE
  2
DIMSTYLE
  5
A
330
0
100
AcDbSymbolTable
 70
     1
100
AcDbDimStyleTable
 71
     0
  0
DIMSTYLE
105
27
330
A
100
AcDbSymbolTableRecord
100
AcDbDimStyleTableRecord
  2
Standard
 70
     0
340
11
  0
ENDTAB
  0
TABLE
  2
BLOCK_RECORD
  5
1
330
0
100
AcDbSymbolTable
 70
     1
  0
BLOCK_RECORD
  5
1F
330
1
100
AcDbSymbolTableRecord
100
AcDbBlockTableRecord
  2
*Model_Space
340
22
  0
BLOCK_RECORD
  5
1B
330
1
100
AcDbSymbolTableRecord
100
AcDbBlockTableRecord
  2
*Paper_Space
340
1E
  0
BLOCK_RECORD
  5
23
330
1
100
AcDbSymbolTableRecord
100
AcDbBlockTableRecord
  2
*Paper_Space0
340
26
  0
ENDTAB
  0
ENDSEC
  0
SECTION
  2
BLOCKS
  0
BLOCK
  5
20
330
1F
100
AcDbEntity
  8
0
100
AcDbBlockBegin
  2
*Model_Space
 70
     0
 10
0.0
 20
0.0
 30
0.0
  3
*Model_Space
  1

  0
ENDBLK
  5
21
330
1F
100
AcDbEntity
  8
0
100
AcDbBlockEnd
  0
BLOCK
  5
1C
330
1B
100
AcDbEntity
 67
     1
  8
0
100
AcDbBlockBegin
  2
*Paper_Space
 70
     0
 10
0.0
 20
0.0
 30
0.0
  3
*Paper_Space
  1

  0
ENDBLK
  5
1D
330
1B
100
AcDbEntity
 67
     1
  8
0
100
AcDbBlockEnd
  0
BLOCK
  5
24
330
23
100
AcDbEntity
 67
     1
  8
0
100
AcDbBlockBegin
  2
*Paper_Space0
 70
     0
 10
0.0
 20
0.0
 30
0.0
  3
*Paper_Space0
  1

  0
ENDBLK
  5
25
330
23
100
AcDbEntity
 67
     1
  8
0
100
AcDbBlockEnd
  0
ENDSEC
  0
SECTION
  2
ENTITIES
  0
LINE
  5
3C
330
1F
100
AcDbEntity
  8
Table_Miura_9555-01_2D
100
AcDbLine
 10
-24.99942602276951
 20
1587.006747932247
 30
0.0
 11
-24.99942602276951
 21
1808.033841064592
 31
0.0
  0
LINE
  5
3D
330
1F
100
AcDbEntity
  8
Table_Miura_9555-01_2D
100
AcDbLine
 10
25.00032668345648
 20
1808.03384106459
 30
0.0
 11
25.00032668345648
 21
1587.000494838013
 31
0.0
  0
LINE
  5
3E
330
1F
100
AcDbEntity
  8
Table_Miura_9555-01_2D
100
AcDbLine
 10
1454.751238155201
 20
1808.033841010091
 30
0.0
 11
1454.751392563933
 21
1588.656470074705
 31
0.0
  0
SPLINE
  5
3F
330
1F
100
AcDbEntity
  8
Table_Miura_9555-01_2D
100
AcDbSpline
210
0.0
220
0.0
230
1.0
 70
    12
 71
     3
 72
    54
 73
    50
 74
     0
 42
0.0000000001
 43
0.0000000001
 40
-36.3735092767428
 40
-36.3735092767428
 40
-36.3735092767428
 40
-36.3735092767428
 40
-35.65104266691848
 40
-35.51144398999158
 40
-35.26611209216915
 40
-35.10822082106449
 40
-35.01354362312179
 40
-34.93913335904487
 40
-34.75994055350136
 40
-34.55514104781033
 40
-34.31738447665442
 40
-34.04971475097287
 40
-33.6579291230507
 40
-33.23516828083971
 40
-32.29041859629452
 40
-31.25837170456729
 40
-30.19949178401347
 40
-30.19949178401347
 40
-30.19949178401347
 40
-29.4960952416352
 40
-29.4960952416352
 40
-28.79304492415562
 40
-28.79304492415562
 40
-28.79304492415562
 40
-20.11557317593713
 40
-20.11557317593713
 40
-20.11557317593713
 40
-8.532726005168029
 40
-8.532726005168029
 40
-8.532726005168029
 40
-8.268823246790324
 40
-8.268823246790324
 40
-8.268823246790324
 40
-7.12177540320921
 40
-7.12177540320921
 40
-7.12177540320921
 40
-5.332336009370442
 40
-3.594248314605103
 40
-2.749108168344542
 40
-1.884922955709098
 40
-1.047676823306014
 40
-0.6247475337379003
 40
-0.1840573543565883
 40
-0.1840573543565883
 40
-0.1840573543565883
 40
-0.0163079898344346
 40
-0.0163079898344346
 40
-0.0163079898344346
 40
0.0
 40
0.0
 40
0.0
 40
0.0
 10
1454.751392563933
 20
1588.656470074706
 30
0.0
 41
0.9999995248451568
 10
1454.992426627775
 20
1588.656475716358
 30
0.0
 41
0.9999995248451568
 10
1455.27978171831
 20
1588.656459440981
 30
0.0
 41
0.9999995248451568
 10
1455.648903029826
 20
1588.656579102019
 30
0.0
 41
0.9999995248451568
 10
1455.82990894866
 20
1588.655802135294
 30
0.0
 41
0.9999995248451568
 10
1455.995736019856
 20
1588.657718334611
 30
0.0
 41
0.9999995248451568
 10
1456.104972339694
 20
1588.65491042277
 30
0.0
 41
0.9999995248451568
 10
1456.218993077945
 20
1588.631527940523
 30
0.0
 41
0.9999995248451568
 10
1456.361603158748
 20
1588.574116570116
 30
0.0
 41
0.9999995248451568
 10
1456.535397404159
 20
1588.45978857737
 30
0.0
 41
0.9999995248451568
 10
1456.711752212742
 20
1588.301099304369
 30
0.0
 41
0.9999995248451568
 10
1456.908666353244
 20
1588.075351872341
 30
0.0
 41
0.9999995248451568
 10
1457.11408911984
 20
1587.77821368538
 30
0.0
 41
0.9999995248451568
 10
1457.397254077576
 20
1587.263765031892
 30
0.0
 41
0.9999995248451568
 10
1457.693232060784
 20
1586.518514598885
 30
0.0
 41
0.9999995248451568
 10
1457.942726702614
 20
1585.535957698933
 30
0.0
 41
0.9999995248451568
 10
1458.036843471581
 20
1584.844366642441
 30
0.0
 41
0.9999995248451568
 10
1458.065813993016
 20
1584.492579713902
 30
0.0
 41
0.9999995248451568
 10
1458.08515376868
 20
1584.258706253483
 30
0.0
 41
0.9999995248451568
 10
1458.144909221044
 20
1584.046710132694
 30
0.0
 41
0.9999995248451568
 10
1458.329284183473
 20
1583.740182753741
 30
0.0
 41
0.9999995248451568
 10
1458.447716838259
 20
1583.656464721439
 30
0.0
 41
0.9999995248451568
 10
1458.573647133464
 20
1583.656470068542
 30
0.0
 41
0.9999995248451568
 10
1461.466137716205
 20
1583.656470086503
 30
0.0
 41
0.9999995248451568
 10
1464.358628298944
 20
1583.656470091837
 30
0.0
 41
0.9999995248451568
 10
1467.251118881683
 20
1583.656470084543
 30
0.0
 41
0.9999995248451568
 10
1471.112067938605
 20
1583.656470069863
 30
0.0
 41
0.9999995248451568
 10
1474.973016995529
 20
1583.656470055183
 30
0.0
 41
0.9999995248451568
 10
1478.833966052451
 20
1583.656470040503
 30
0.0
 41
0.9999995248451568
 10
1478.922188072049
 20
1583.656454408551
 30
0.0
 41
0.9942088042594845
 10
1479.009601035761
 20
1583.668207588566
 30
0.0
 41
0.9942086996797163
 10
1479.094686417417
 20
1583.691525409622
 30
0.0
 41
0.9999992111058521
 10
1479.485103497433
 20
1583.798929761948
 30
0.0
 41
0.8933366331508512
 10
1479.754969904854
 20
1584.100951823028
 30
0.0
 41
0.8933368961155672
 10
1479.817931581727
 20
1584.500947846165
 30
0.0
 41
1.0
 10
1479.910813692341
 20
1585.089965991833
 30
0.0
 41
1.0
 10
1480.287616752528
 20
1586.222272211961
 30
0.0
 41
1.0
 10
1481.208763843334
 20
1587.382009906293
 30
0.0
 41
1.0
 10
1482.146172432784
 20
1588.055828785385
 30
0.0
 41
1.0
 10
1482.91852867942
 20
1588.416605317131
 30
0.0
 41
1.0
 10
1483.607769464354
 20
1588.592090906762
 30
0.0
 41
1.0
 10
1484.171869214676
 20
1588.655037137252
 30
0.0
 41
1.0
 10
1484.460064492614
 20
1588.657480238344
 30
0.0
 41
1.0
 10
1484.606909438539
 20
1588.657007162115
 30
0.0
 41
1.0
 10
1484.662825892343
 20
1588.657007822737
 30
0.0
 41
0.999999999998273
 10
1484.718742353615
 20
1588.656969705834
 30
0.0
 41
0.999999999998273
 10
1484.774658822358
 20
1588.656892811406
 30
0.0
 41
1.0
 10
1484.780094827723
 20
1588.656805367058
 30
0.0
 41
0.9999999998057724
 10
1484.769536273155
 20
1588.656543319885
 30
0.0
 41
0.9999999998057724
 10
1484.774972158761
 20
1588.656578059519
 30
0.0
 41
1.0
  0
SPLINE
  5
40
330
1F
100
AcDbEntity
  8
Table_Miura_9555-01_2D
100
AcDbSpline
210
0.0
220
0.0
230
1.0
 70
    12
 71
     2
 72
     6
 73
     3
 74
     0
 42
0.0000000001
 43
0.0000000001
 40
0.0
 40
0.0
 40
0.0
 40
0.0159951658560524
 40
0.0159951658560524
 40
0.0159951658560524
 10
1484.774972158761
 20
1588.656578059519
 30
0.0
 41
1.0
 10
1484.782969578775
 20
1588.656629169397
 30
0.0
 41
0.9999999249432411
 10
1484.790967035992
 20
1588.656674082142
 30
0.0
 41
1.0
  0
SPLINE
  5
41
330
1F
100
AcDbEntity
  8
Table_Miura_9555-01_2D
100
AcDbSpline
210
0.0
220
0.0
230
1.0
 70
    12
 71
     2
 72
     6
 73
     3
 74
     0
 42
0.0000000001
 43
0.0000000001
 40
0.0
 40
0.0
 40
0.0
 40
7.460028192515835
 40
7.460028192515835
 40
7.460028192515835
 10
1484.790967035992
 20
1588.656674082142
 30
0.0
 41
1.0
 10
1488.52098112369
 20
1588.656374101848
 30
0.0
 41
0.9999999985914357
 10
1492.250995222216
 20
1588.656470074706
 30
0.0
 41
1.0
  0
SPLINE
  5
42
330
1F
100
AcDbEntity
  8
Table_Miura_9555-01_2D
100
AcDbSpline
210
0.0
220
0.0
230
1.0
 70
    12
 71
     2
 72
     6
 73
     3
 74
     0
 42
0.0000000001
 43
0.0000000001
 40
-5.848452852216105
 40
-5.848452852216105
 40
-5.848452852216105
 40
0.0
 40
0.0
 40
0.0
 10
1492.250995222216
 20
1588.656470074706
 30
0.0
 41
1.0
 10
1495.17522164875
 20
1588.656512733596
 30
0.0
 41
0.9999999996213539
 10
1498.099448073205
 20
1588.656394449251
 30
0.0
 41
1.0
  0
SPLINE
  5
43
330
1F
100
AcDbEntity
  8
Table_Miura_9555-01_2D
100
AcDbSpline
210
0.0
220
0.0
230
1.0
 70
     8
 71
     3
 72
    15
 73
    11
 74
     0
 42
0.0000000001
 43
0.0000000001
 40
-5.517215510995962
 40
-5.517215510995962
 40
-5.517215510995962
 40
-5.517215510995962
 40
-4.927738640847089
 40
-4.318670834827658
 40
-3.704388331691281
 40
-3.058194976662103
 40
-2.377907408399816
 40
-1.641856638493278
 40
-0.8506135065108557
 40
0.0
 40
0.0
 40
0.0
 40
0.0
 10
1498.099448073205
 20
1588.656394449251
 30
0.0
 10
1498.294303844148
 20
1588.631064606459
 30
0.0
 10
1498.6853616137
 20
1588.540140355975
 30
0.0
 10
1499.237186950115
 20
1588.286090325316
 30
0.0
 10
1499.742743890884
 20
1587.916904603246
 30
0.0
 10
1500.188491504622
 20
1587.44461474017
 30
0.0
 10
1500.573230731804
 20
1586.872430049283
 30
0.0
 10
1500.89321444233
 20
1586.207974805132
 30
0.0
 10
1501.147987793624
 20
1585.456105488391
 30
0.0
 10
1501.269801350128
 20
1584.913746926713
 30
0.0
 10
1501.319767295352
 20
1584.634666812184
 30
0.0
  0
SPLINE
  5
44
330
1F
100
AcDbEntity
  8
Table_Miura_9555-01_2D
100
AcDbSpline
210
0.0
220
0.0
230
1.0
 70
    12
 71
     2
 72
     6
 73
     3
 74
     0
 42
0.0000000001
 43
0.0000000001
 40
-0.3761526883931789
 40
-0.3761526883931789
 40
-0.3761526883931789
 40
0.0
 40
0.0
 40
0.0
 10
1501.319767295352
 20
1584.634666812184
 30
0.0
 41
1.0
 10
1501.352913084553
 20
1584.449534106202
 30
0.0
 41
0.9999989203661542
 10
1501.38660281442
 20
1584.264499611398
 30
0.0
 41
1.0
  0
SPLINE
  5
45
330
1F
100
AcDbEntity
  8
Table_Miura_9555-01_2D
100
AcDbSpline
210
0.0
220
0.0
230
1.0
 70
     8
 71
     3
 72
    11
 73
     7
 74
     0
 42
0.0000000001
 43
0.0000000001
 40
0.0081002585430663
 40
0.0081002585430663
 40
0.0081002585430663
 40
0.0081002585430663
 40
0.7699006330026301
 40
0.7699006330026301
 40
0.7699006330026301
 40
3.675276053828606
 40
3.675276053828606
 40
3.675276053828606
 40
3.675276053828606
 10
1501.38660281442
 20
1584.264499611398
 30
0.0
 10
1501.432124261728
 20
1584.014481637411
 30
0.0
 10
1501.591670612701
 20
1583.656470039457
 30
0.0
 10
1501.845557988095
 20
1583.656470040503
 30
0.0
 10
1502.814016461705
 20
1583.656470044493
 30
0.0
 10
1503.782474935313
 20
1583.656470048482
 30
0.0
 10
1504.750933408921
 20
1583.656470058456
 30
0.0
  0
LINE
  5
46
330
1F
100
AcDbEntity
  8
Table_Miura_9555-01_2D
100
AcDbLine
 10
1504.750933408921
 20
1583.656470058456
 30
0.0
 11
1504.750933410703
 21
1808.033841010091
 31
0.0
  0
LINE
  5
47
330
1F
100
AcDbEntity
  8
Table_Miura_9555-01_2D
100
AcDbLine
 10
2934.501618916284
 20
1584.255806479968
 30
0.0
 11
2934.501618916284
 21
1808.033841058442
 31
0.0
  0
LINE
  5
48
330
1F
100
AcDbEntity
  8
Table_Miura_9555-01_2D
100
AcDbLine
 10
2984.50137162251
 20
1808.033841058443
 30
0.0
 11
2984.50137162251
 21
1584.255806479968
 31
0.0
  0
SPLINE
  5
49
330
1F
100
AcDbEntity
  8
Table_Miura_9555-01_2D
100
AcDbSpline
210
0.0
220
0.0
230
1.0
 70
    28
 71
     2
 72
     6
 73
     3
 74
     0
 42
0.0000000001
 43
0.0000000001
 40
-0.0016858811199636
 40
-0.0016858811199636
 40
-0.0016858811199636
 40
0.0
 40
0.0
 40
0.0
 10
-137.5015789262957
 20
1832.033841834206
 30
0.0
 41
1.0
 10
-137.5024218663252
 20
1832.033842779763
 30
0.0
 41
1.0
 10
-137.5032648063548
 20
1832.033843725208
 30
0.0
 41
1.0
  0
SPLINE
  5
4A
330
1F
100
AcDbEntity
  8
Table_Miura_9555-01_2D
100
AcDbSpline
210
0.0
220
0.0
230
1.0
 70
    12
 71
     2
 72
     6
 73
     3
 74
     0
 42
0.0000000001
 43
0.0000000001
 40
0.0
 40
0.0
 40
0.0
 40
3.923330453739821
 40
3.923330453739821
 40
3.923330453739821
 10
-137.5032648063548
 20
1832.033843725208
 30
0.0
 41
1.0
 10
-139.999612106932
 20
1832.037491099433
 30
0.0
 41
0.7076212603681255
 10
-139.9996093558373
 20
1834.53384106459
 30
0.0
 41
0.9999999999904636
  0
SPLINE
  5
4B
330
1F
100
AcDbEntity
  8
Table_Miura_9555-01_2D
100
AcDbSpline
210
0.0
220
0.0
230
1.0
 70
    24
 71
     2
 72
     6
 73
     3
 74
     0
 42
0.0000000001
 43
0.0000000001
 40
0.0
 40
0.0
 40
0.0
 40
3.499999999999773
 40
3.499999999999773
 40
3.499999999999773
 10
-139.9996093558371
 20
1834.53384106459
 30
0.0
 10
-139.9994461708239
 20
1836.28384106459
 30
0.0
 10
-139.9992829858107
 20
1838.033841064589
 30
0.0
  0
SPLINE
  5
4C
330
1F
100
AcDbEntity
  8
Table_Miura_9555-01_2D
100
AcDbSpline
210
0.0
220
0.0
230
1.0
 70
    24
 71
     3
 72
     8
 73
     4
 74
     0
 42
0.0000000001
 43
0.0000000001
 40
-279.9993259299167
 40
-279.9993259299167
 40
-279.9993259299167
 40
-279.9993259299167
 40
0.0
 40
0.0
 40
0.0
 40
0.0
 10
-139.9992829858107
 20
1838.033841064589
 30
0.0
 10
-46.66583727653099
 20
1838.033841064589
 30
0.0
 10
46.66727136677443
 20
1838.033841064589
 30
0.0
 10
140.0003800410127
 20
1838.033841064589
 30
0.0
  0
SPLINE
  5
4D
330
1F
100
AcDbEntity
  8
Table_Miura_9555-01_2D
100
AcDbSpline
210
0.0
220
0.0
230
1.0
 70
    24
 71
     2
 72
     6
 73
     3
 74
     0
 42
0.0000000001
 43
0.0000000001
 40
0.0
 40
0.0
 40
0.0
 40
3.5
 40
3.5
 40
3.5
 10
140.0003800410127
 20
1838.033841064589
 30
0.0
 10
140.0003800451049
 20
1836.28384106459
 30
0.0
 10
140.0003800491972
 20
1834.53384106459
 30
0.0
  0
SPLINE
  5
4E
330
1F
100
AcDbEntity
  8
Table_Miura_9555-01_2D
100
AcDbSpline
210
0.0
220
0.0
230
1.0
 70
    12
 71
     2
 72
     6
 73
     3
 74
     0
 42
0.0000000001
 43
0.0000000001
 40
0.0
 40
0.0
 40
0.0
 40
3.926978729214438
 40
3.926978729214438
 40
3.926978729214438
 10
140.0003800491972
 20
1834.53384106459
 30
0.0
 41
1.0
 10
140.000379415465
 20
1832.033853501081
 30
0.0
 41
0.7071086263809616
 10
137.500385931597
 20
1832.033841064603
 30
0.0
 41
1.0
  0
SPLINE
  5
4F
330
1F
100
AcDbEntity
  8
Table_Miura_9555-01_2D
100
AcDbSpline
210
0.0
220
0.0
230
1.0
 70
    24
 71
     3
 72
     9
 73
     5
 74
     0
 42
0.0000000001
 43
0.0000000001
 40
-275.000634640636
 40
-275.000634640636
 40
-275.000634640636
 40
-275.000634640636
 40
-0.0006371167132784
 40
0.0
 40
0.0
 40
0.0
 40
0.0
 10
137.500385931597
 20
1832.033841064603
 30
0.0
 10
45.83373434929261
 20
1832.033841064588
 30
0.0
 10
-45.83320536098064
 20
1832.033841064595
 30
0.0
 10
-137.5000193055071
 20
1832.03384106459
 30
0.0
 10
-137.4989803960011
 20
1832.03384106459
 30
0.0
  0
SPLINE
  5
50
330
1F
100
AcDbEntity
  8
Table_Miura_9555-01_2D
100
AcDbSpline
210
0.0
220
0.0
230
1.0
 70
    24
 71
     2
 72
     6
 73
     3
 74
     0
 42
0.0000000001
 43
0.0000000001
 40
0.0
 40
0.0
 40
0.0
 40
47.99851635084928
 40
47.99851635084928
 40
47.99851635084928
 10
91.56831454056506
 20
1832.03309923206
 30
0.0
 10
70.78434728084627
 20
1820.033470148326
 30
0.0
 10
50.00038002112749
 20
1808.03384106459
 30
0.0
  0
SPLINE
  5
51
330
1F
100
AcDbEntity
  8
Table_Miura_9555-01_2D
100
AcDbSpline
210
0.0
220
0.0
230
1.0
 70
    24
 71
     3
 72
    10
 73
     6
 74
     0
 42
0.0000000001
 43
0.0000000001
 40
-100.0009354610945
 40
-100.0009354610945
 40
-100.0009354610945
 40
-100.0009354610945
 40
-0.0009354610938317
 40
-0.0007038564751838
 40
0.0
 40
0.0
 40
0.0
 40
0.0
 10
50.00038002112749
 20
1808.03384106459
 30
0.0
 10
16.66707672934124
 20
1808.033841064589
 30
0.0
 10
-16.66642396524142
 20
1808.033841064593
 30
0.0
 10
-49.99997037205096
 20
1808.033841064593
 30
0.0
 10
-49.99830882304426
 20
1808.03384106459
 30
0.0
 10
-49.99915227041995
 20
1808.03384106459
 30
0.0
  0
SPLINE
  5
52
330
1F
100
AcDbEntity
  8
Table_Miura_9555-01_2D
100
AcDbSpline
210
0.0
220
0.0
230
1.0
 70
    24
 71
     2
 72
     6
 73
     3
 74
     0
 42
0.0000000001
 43
0.0000000001
 40
0.0
 40
0.0
 40
0.0
 40
47.99848741513637
 40
47.99848741513637
 40
47.99848741513637
 10
-49.99915227041995
 20
1808.03384106459
 30
0.0
 10
-70.78334086588123
 20
1820.033462914398
 30
0.0
 10
-91.5675294613425
 20
1832.033084764205
 30
0.0
  0
SPLINE
  5
53
330
1F
100
AcDbEntity
  8
Table_Miura_9555-01_2D
100
AcDbSpline
210
0.0
220
0.0
230
1.0
 70
    24
 71
     2
 72
     6
 73
     3
 74
     0
 42
0.0000000001
 43
0.0000000001
 40
-47.99848741513631
 40
-47.99848741513631
 40
-47.99848741513631
 40
0.0
 40
0.0
 40
0.0
 10
1571.319346227967
 20
1832.033084709706
 30
0.0
 10
1550.535157632506
 20
1820.033462859899
 30
0.0
 10
1529.750969037044
 20
1808.033841010091
 30
0.0
  0
SPLINE
  5
54
330
1F
100
AcDbEntity
  8
Table_Miura_9555-01_2D
100
AcDbSpline
210
0.0
220
0.0
230
1.0
 70
    24
 71
     3
 72
    10
 73
     6
 74
     0
 42
0.0000000001
 43
0.0000000001
 40
0.0
 40
0.0
 40
0.0
 40
0.0
 40
0.0007038564752122
 40
0.0009354610935191
 40
50.0009354610936
 40
50.0009354610936
 40
50.0009354610936
 40
50.0009354610936
 10
1529.750969037044
 20
1808.033841010091
 30
0.0
 10
1529.750140283926
 20
1808.033841010094
 30
0.0
 10
1529.751773957349
 20
1808.033841010091
 30
0.0
 10
1513.084935669527
 20
1808.033841010093
 30
0.0
 10
1496.418052752088
 20
1808.03384101009
 30
0.0
 10
1479.751436756544
 20
1808.033841010091
 30
0.0
  0
SPLINE
  5
55
330
1F
100
AcDbEntity
  8
Table_Miura_9555-01_2D
100
AcDbSpline
210
0.0
220
0.0
230
1.0
 70
    24
 71
     2
 72
     6
 73
     3
 74
     0
 42
0.0000000001
 43
0.0000000001
 40
0.0
 40
0.0
 40
0.0
 40
49.99906453890648
 40
49.99906453890648
 40
49.99906453890648
 10
1479.751436756544
 20
1808.033841010091
 30
0.0
 10
1454.751670616293
 20
1808.033841010091
 30
0.0
 10
1429.751904476043
 20
1808.033841010091
 30
0.0
  0
SPLINE
  5
56
330
1F
100
AcDbEntity
  8
Table_Miura_9555-01_2D
100
AcDbSpline
210
0.0
220
0.0
230
1.0
 70
    24
 71
     2
 72
     6
 73
     3
 74
     0
 42
0.0000000001
 43
0.0000000001
 40
-47.99848741513629
 40
-47.99848741513629
 40
-47.99848741513629
 40
0.0
 40
0.0
 40
0.0
 10
1429.751904476043
 20
1808.033841010091
 30
0.0
 10
1408.967715880582
 20
1820.033462859899
 30
0.0
 10
1388.183527285121
 20
1832.033084709706
 30
0.0
  0
SPLINE
  5
57
330
1F
100
AcDbEntity
  8
Table_Miura_9555-01_2D
100
AcDbSpline
210
0.0
220
0.0
230
1.0
 70
    24
 71
     3
 72
     9
 73
     5
 74
     0
 42
0.0000000001
 43
0.0000000001
 40
0.0
 40
0.0
 40
0.0
 40
0.0
 40
0.0006373261368182
 40
137.5005588484815
 40
137.5005588484815
 40
137.5005588484815
 40
137.5005588484815
 10
1617.250795402259
 20
1832.033841010092
 30
0.0
 10
1617.251817827929
 20
1832.03384101009
 30
0.0
 10
1571.418416815014
 20
1832.03384101009
 30
0.0
 10
1525.584772174776
 20
1832.033841010091
 30
0.0
 10
1479.75147398128
 20
1832.033841010092
 30
0.0
  0
SPLINE
  5
58
330
1F
100
AcDbEntity
  8
Table_Miura_9555-01_2D
100
AcDbSpline
210
0.0
220
0.0
230
1.0
 70
    24
 71
     2
 72
     6
 73
     3
 74
     0
 42
0.0000000001
 43
0.0000000001
 40
0.0
 40
0.0
 40
0.0
 40
137.4994130277261
 40
137.4994130277261
 40
137.4994130277261
 10
1479.75147398128
 20
1832.033841010092
 30
0.0
 10
1411.001748855032
 20
1832.033841010092
 30
0.0
 10
1342.252023728784
 20
1832.033841010092
 30
0.0
  0
SPLINE
  5
59
330
1F
100
AcDbEntity
  8
Table_Miura_9555-01_2D
100
AcDbSpline
210
0.0
220
0.0
230
1.0
 70
    12
 71
     2
 72
     6
 73
     3
 74
     0
 42
0.0000000001
 43
0.0000000001
 40
-0.0017236465548061
 40
-0.0017236465548061
 40
-0.0017236465548061
 40
0.0
 40
0.0
 40
0.0
 10
1617.253297191402
 20
1832.033841705976
 30
0.0
 41
1.0
 10
1617.254159014168
 20
1832.033842645798
 30
0.0
 41
1.0
 10
1617.255020836932
 20
1832.033843585282
 30
0.0
 41
1.0
  0
SPLINE
  5
5A
330
1F
100
AcDbEntity
  8
Table_Miura_9555-01_2D
100
AcDbSpline
210
0.0
220
0.0
230
1.0
 70
    12
 71
     2
 72
     6
 73
     3
 74
     0
 42
0.0000000001
 43
0.0000000001
 40
0.0
 40
0.0
 40
0.0
 40
3.923393678308206
 40
3.923393678308206
 40
3.923393678308206
 10
1617.255020836932
 20
1832.033843585282
 30
0.0
 41
1.0
 10
1619.751429903725
 20
1832.037429368018
 30
0.0
 41
0.7076128936508792
 10
1619.751427918395
 20
1834.533841010092
 30
0.0
 41
0.9999999999935768
  0
SPLINE
  5
5B
330
1F
100
AcDbEntity
  8
Table_Miura_9555-01_2D
100
AcDbSpline
210
0.0
220
0.0
230
1.0
 70
    24
 71
     2
 72
     6
 73
     3
 74
     0
 42
0.0000000001
 43
0.0000000001
 40
0.0
 40
0.0
 40
0.0
 40
3.5
 40
3.5
 40
3.5
 10
1619.751427918395
 20
1834.533841010092
 30
0.0
 10
1619.751263835415
 20
1836.283841010092
 30
0.0
 10
1619.751099752435
 20
1838.033841010092
 30
0.0
  0
SPLINE
  5
5C
330
1F
100
AcDbEntity
  8
Table_Miura_9555-01_2D
100
AcDbSpline
210
0.0
220
0.0
230
1.0
 70
    24
 71
     2
 72
     6
 73
     3
 74
     0
 42
0.0000000001
 43
0.0000000001
 40
-139.9993259299168
 40
-139.9993259299168
 40
-139.9993259299168
 40
0.0
 40
0.0
 40
0.0
 10
1619.751099752435
 20
1838.033841010092
 30
0.0
 10
1549.751268254489
 20
1838.033841010092
 30
0.0
 10
1479.751436756544
 20
1838.033841010092
 30
0.0
  0
SPLINE
  5
5D
330
1F
100
AcDbEntity
  8
Table_Miura_9555-01_2D
100
AcDbSpline
210
0.0
220
0.0
230
1.0
 70
    24
 71
     3
 72
     9
 73
     5
 74
     0
 42
0.0000000001
 43
0.0000000001
 40
-140.0006740700831
 40
-140.0006740700831
 40
-140.0006740700831
 40
-140.0006740700831
 40
-0.000588034942917
 40
0.0
 40
0.0
 40
0.0
 40
0.0
 10
1479.751436756544
 20
1838.033841010092
 30
0.0
 10
1433.084857429391
 20
1838.033841010089
 30
0.0
 10
1386.417755057983
 20
1838.033841010092
 30
0.0
 10
1339.751134070413
 20
1838.033841010094
 30
0.0
 10
1339.751773760653
 20
1838.033841010092
 30
0.0
  0
SPLINE
  5
5E
330
1F
100
AcDbEntity
  8
Table_Miura_9555-01_2D
100
AcDbSpline
210
0.0
220
0.0
230
1.0
 70
    24
 71
     2
 72
     6
 73
     3
 74
     0
 42
0.0000000001
 43
0.0000000001
 40
0.0
 40
0.0
 40
0.0
 40
3.5
 40
3.5
 40
3.5
 10
1339.751773760653
 20
1838.033841010092
 30
0.0
 10
1339.751590312388
 20
1836.283841010092
 30
0.0
 10
1339.751406864122
 20
1834.533841010092
 30
0.0
  0
SPLINE
  5
5F
330
1F
100
AcDbEntity
  8
Table_Miura_9555-01_2D
100
AcDbSpline
210
0.0
220
0.0
230
1.0
 70
    12
 71
     2
 72
     6
 73
     3
 74
     0
 42
0.0000000001
 43
0.0000000001
 40
0.0
 40
0.0
 40
0.0
 40
3.923569074038741
 40
3.923569074038741
 40
3.923569074038741
 10
1339.751406864122
 20
1834.533841010092
 30
0.0
 41
0.9999999999897546
 10
1339.751382213732
 20
1832.037263360015
 30
0.0
 41
0.7075916723679009
 10
1342.247957521266
 20
1832.033843361528
 30
0.0
 41
1.0
  0
SPLINE
  5
60
330
1F
100
AcDbEntity
  8
Table_Miura_9555-01_2D
100
AcDbSpline
210
0.0
220
0.0
230
1.0
 70
    28
 71
     2
 72
     6
 73
     3
 74
     0
 42
0.0000000001
 43
0.0000000001
 40
0.0
 40
0.0
 40
0.0
 40
0.0017079348288815
 40
0.0017079348288815
 40
0.0017079348288815
 10
1342.247957521266
 20
1832.033843361528
 30
0.0
 41
1.0
 10
1342.248811488228
 20
1832.033842482112
 30
0.0
 41
1.0
 10
1342.24966545519
 20
1832.033841602587
 30
0.0
 41
1.0
  0
SPLINE
  5
61
330
1F
100
AcDbEntity
  8
Table_Miura_9555-01_2D
100
AcDbSpline
210
0.0
220
0.0
230
1.0
 70
    24
 71
     2
 72
     6
 73
     3
 74
     0
 42
0.0000000001
 43
0.0000000001
 40
-47.99848741513631
 40
-47.99848741513631
 40
-47.99848741513631
 40
0.0
 40
0.0
 40
0.0
 10
3051.070234457694
 20
1832.033084758057
 30
0.0
 10
3030.286045862233
 20
1820.033462908249
 30
0.0
 10
3009.501857266771
 20
1808.033841058442
 30
0.0
  0
SPLINE
  5
62
330
1F
100
AcDbEntity
  8
Table_Miura_9555-01_2D
100
AcDbSpline
210
0.0
220
0.0
230
1.0
 70
    24
 71
     3
 72
    10
 73
     6
 74
     0
 42
0.0000000001
 43
0.0000000001
 40
0.0
 40
0.0
 40
0.0
 40
0.0
 40
0.0007038564752122
 40
0.0009354610935191
 40
50.0009354610936
 40
50.0009354610936
 40
50.0009354610936
 40
50.0009354610936
 10
3009.501857266771
 20
1808.033841058442
 30
0.0
 10
3009.501028513653
 20
1808.033841058445
 30
0.0
 10
3009.502662187076
 20
1808.033841058442
 30
0.0
 10
2992.835823899254
 20
1808.033841058444
 30
0.0
 10
2976.168940981815
 20
1808.033841058441
 30
0.0
 10
2959.502324986271
 20
1808.033841058442
 30
0.0
  0
SPLINE
  5
63
330
1F
100
AcDbEntity
  8
Table_Miura_9555-01_2D
100
AcDbSpline
210
0.0
220
0.0
230
1.0
 70
    24
 71
     2
 72
     6
 73
     3
 74
     0
 42
0.0000000001
 43
0.0000000001
 40
0.0
 40
0.0
 40
0.0
 40
49.99906453890648
 40
49.99906453890648
 40
49.99906453890648
 10
2959.502324986271
 20
1808.033841058442
 30
0.0
 10
2934.50255884602
 20
1808.033841058442
 30
0.0
 10
2909.50279270577
 20
1808.033841058442
 30
0.0
  0
SPLINE
  5
64
330
1F
100
AcDbEntity
  8
Table_Miura_9555-01_2D
100
AcDbSpline
210
0.0
220
0.0
230
1.0
 70
    24
 71
     2
 72
     6
 73
     3
 74
     0
 42
0.0000000001
 43
0.0000000001
 40
-47.99848741513629
 40
-47.99848741513629
 40
-47.99848741513629
 40
0.0
 40
0.0
 40
0.0
 10
2909.50279270577
 20
1808.033841058442
 30
0.0
 10
2888.718604110309
 20
1820.033462908249
 30
0.0
 10
2867.934415514848
 20
1832.033084758057
 30
0.0
  0
SPLINE
  5
65
330
1F
100
AcDbEntity
  8
Table_Miura_9555-01_2D
100
AcDbSpline
210
0.0
220
0.0
230
1.0
 70
    24
 71
     3
 72
     9
 73
     5
 74
     0
 42
0.0000000001
 43
0.0000000001
 40
0.0
 40
0.0
 40
0.0
 40
0.0
 40
0.0006373261368182
 40
137.5005588484815
 40
137.5005588484815
 40
137.5005588484815
 40
137.5005588484815
 10
3097.001683631986
 20
1832.033841058442
 30
0.0
 10
3097.002706057657
 20
1832.03384105844
 30
0.0
 10
3051.169305044741
 20
1832.033841058441
 30
0.0
 10
3005.335660404503
 20
1832.033841058441
 30
0.0
 10
2959.502362211007
 20
1832.033841058442
 30
0.0
  0
SPLINE
  5
66
330
1F
100
AcDbEntity
  8
Table_Miura_9555-01_2D
100
AcDbSpline
210
0.0
220
0.0
230
1.0
 70
    24
 71
     2
 72
     6
 73
     3
 74
     0
 42
0.0000000001
 43
0.0000000001
 40
0.0
 40
0.0
 40
0.0
 40
137.4994130277261
 40
137.4994130277261
 40
137.4994130277261
 10
2959.502362211007
 20
1832.033841058442
 30
0.0
 10
2890.752637084759
 20
1832.033841058442
 30
0.0
 10
2822.002911958512
 20
1832.033841058442
 30
0.0
  0
SPLINE
  5
67
330
1F
100
AcDbEntity
  8
Table_Miura_9555-01_2D
100
AcDbSpline
210
0.0
220
0.0
230
1.0
 70
    12
 71
     2
 72
     6
 73
     3
 74
     0
 42
0.0000000001
 43
0.0000000001
 40
-0.0017236465548061
 40
-0.0017236465548061
 40
-0.0017236465548061
 40
0.0
 40
0.0
 40
0.0
 10
3097.004185421129
 20
1832.033841754328
 30
0.0
 41
1.0
 10
3097.005047243895
 20
1832.033842694149
 30
0.0
 41
1.0
 10
3097.005909066659
 20
1832.033843633634
 30
0.0
 41
1.0
  0
SPLINE
  5
68
330
1F
100
AcDbEntity
  8
Table_Miura_9555-01_2D
100
AcDbSpline
210
0.0
220
0.0
230
1.0
 70
    12
 71
     2
 72
     6
 73
     3
 74
     0
 42
0.0000000001
 43
0.0000000001
 40
0.0
 40
0.0
 40
0.0
 40
3.923393678308206
 40
3.923393678308206
 40
3.923393678308206
 10
3097.005909066659
 20
1832.033843633634
 30
0.0
 41
1.0
 10
3099.502318133451
 20
1832.037429416369
 30
0.0
 41
0.7076128936508792
 10
3099.502316148121
 20
1834.533841058443
 30
0.0
 41
0.9999999999935768
  0
SPLINE
  5
69
330
1F
100
AcDbEntity
  8
Table_Miura_9555-01_2D
100
AcDbSpline
210
0.0
220
0.0
230
1.0
 70
    24
 71
     2
 72
     6
 73
     3
 74
     0
 42
0.0000000001
 43
0.0000000001
 40
0.0
 40
0.0
 40
0.0
 40
3.5
 40
3.5
 40
3.5
 10
3099.502316148122
 20
1834.533841058442
 30
0.0
 10
3099.502152065142
 20
1836.283841058442
 30
0.0
 10
3099.501987982162
 20
1838.033841058442
 30
0.0
  0
SPLINE
  5
6A
330
1F
100
AcDbEntity
  8
Table_Miura_9555-01_2D
100
AcDbSpline
210
0.0
220
0.0
230
1.0
 70
    24
 71
     2
 72
     6
 73
     3
 74
     0
 42
0.0000000001
 43
0.0000000001
 40
-139.9993259299168
 40
-139.9993259299168
 40
-139.9993259299168
 40
0.0
 40
0.0
 40
0.0
 10
3099.501987982162
 20
1838.033841058442
 30
0.0
 10
3029.502156484216
 20
1838.033841058442
 30
0.0
 10
2959.502324986271
 20
1838.033841058442
 30
0.0
  0
SPLINE
  5
6B
330
1F
100
AcDbEntity
  8
Table_Miura_9555-01_2D
100
AcDbSpline
210
0.0
220
0.0
230
1.0
 70
    24
 71
     3
 72
     9
 73
     5
 74
     0
 42
0.0000000001
 43
0.0000000001
 40
-140.0006740700831
 40
-140.0006740700831
 40
-140.0006740700831
 40
-140.0006740700831
 40
-0.000588034942917
 40
0.0
 40
0.0
 40
0.0
 40
0.0
 10
2959.502324986271
 20
1838.033841058442
 30
0.0
 10
2912.835745659118
 20
1838.03384105844
 30
0.0
 10
2866.16864328771
 20
1838.033841058443
 30
0.0
 10
2819.50202230014
 20
1838.033841058444
 30
0.0
 10
2819.502661990381
 20
1838.033841058442
 30
0.0
  0
SPLINE
  5
6C
330
1F
100
AcDbEntity
  8
Table_Miura_9555-01_2D
100
AcDbSpline
210
0.0
220
0.0
230
1.0
 70
    24
 71
     2
 72
     6
 73
     3
 74
     0
 42
0.0000000001
 43
0.0000000001
 40
0.0
 40
0.0
 40
0.0
 40
3.5
 40
3.5
 40
3.5
 10
2819.502661990381
 20
1838.033841058442
 30
0.0
 10
2819.502478542115
 20
1836.283841058442
 30
0.0
 10
2819.502295093849
 20
1834.533841058442
 30
0.0
  0
SPLINE
  5
6D
330
1F
100
AcDbEntity
  8
Table_Miura_9555-01_2D
100
AcDbSpline
210
0.0
220
0.0
230
1.0
 70
    12
 71
     2
 72
     6
 73
     3
 74
     0
 42
0.0000000001
 43
0.0000000001
 40
0.0
 40
0.0
 40
0.0
 40
3.923569074038741
 40
3.923569074038741
 40
3.923569074038741
 10
2819.502295093849
 20
1834.533841058443
 30
0.0
 41
0.9999999999897546
 10
2819.50227044346
 20
1832.037263408366
 30
0.0
 41
0.7075916723679009
 10
2821.998845750993
 20
1832.033843409879
 30
0.0
 41
1.0
  0
SPLINE
  5
6E
330
1F
100
AcDbEntity
  8
Table_Miura_9555-01_2D
100
AcDbSpline
210
0.0
220
0.0
230
1.0
 70
    28
 71
     2
 72
     6
 73
     3
 74
     0
 42
0.0000000001
 43
0.0000000001
 40
0.0
 40
0.0
 40
0.0
 40
0.0017079348288815
 40
0.0017079348288815
 40
0.0017079348288815
 10
2821.998845750993
 20
1832.033843409879
 30
0.0
 41
1.0
 10
2821.999699717954
 20
1832.033842530462
 30
0.0
 41
1.0
 10
2822.000553684917
 20
1832.033841650937
 30
0.0
 41
1.0
  0
SPLINE
  5
6F
330
1F
100
AcDbEntity
  8
Table_Miura_9555-01_2D
100
AcDbSpline
210
0.0
220
0.0
230
1.0
 70
    24
 71
     2
 72
     6
 73
     3
 74
     0
 42
0.0000000001
 43
0.0000000001
 40
0.0
 40
0.0
 40
0.0
 40
20.0
 40
20.0
 40
20.0
 10
2459.50232498627
 20
1838.033841069165
 30
0.0
 10
2459.50232498627
 20
1843.033841069164
 30
0.0
 10
2459.50232498627
 20
1848.033841069164
 30
0.0
  0
SPLINE
  5
70
330
1F
100
AcDbEntity
  8
Table_Miura_9555-01_2D
100
AcDbSpline
210
0.0
220
0.0
230
1.0
 70
    24
 71
     2
 72
     6
 73
     3
 74
     0
 42
0.0000000001
 43
0.0000000001
 40
0.0
 40
0.0
 40
0.0
 40
1000.0
 40
1000.0
 40
1000.0
 10
2459.50232498627
 20
1848.033841069164
 30
0.0
 10
2959.502324986271
 20
1848.033841069164
 30
0.0
 10
3459.502324986271
 20
1848.033841069164
 30
0.0
  0
SPLINE
  5
71
330
1F
100
AcDbEntity
  8
Table_Miura_9555-01_2D
100
AcDbSpline
210
0.0
220
0.0
230
1.0
 70
    24
 71
     2
 72
     6
 73
     3
 74
     0
 42
0.0000000001
 43
0.0000000001
 40
-20.0
 40
-20.0
 40
-20.0
 40
0.0
 40
0.0
 40
0.0
 10
3459.502324986271
 20
1848.033841069164
 30
0.0
 10
3459.502324986271
 20
1843.033841069164
 30
0.0
 10
3459.502324986271
 20
1838.033841069165
 30
0.0
  0
SPLINE
  5
72
330
1F
100
AcDbEntity
  8
Table_Miura_9555-01_2D
100
AcDbSpline
210
0.0
220
0.0
230
1.0
 70
    24
 71
     2
 72
     6
 73
     3
 74
     0
 42
0.0000000001
 43
0.0000000001
 40
-1000.0
 40
-1000.0
 40
-1000.0
 40
0.0
 40
0.0
 40
0.0
 10
3459.502324986271
 20
1838.033841069165
 30
0.0
 10
2959.502324986271
 20
1838.033841069165
 30
0.0
 10
2459.50232498627
 20
1838.033841069165
 30
0.0
  0
POLYLINE
  5
73
330
1F
100
AcDbEntity
  8
Table_Miura_9555-01_2D
100
AcDb2dPolyline
 66
     1
 10
0.0
 20
0.0
 30
0.0
  0
VERTEX
  5
74
330
73
100
AcDbEntity
  8
Table_Miura_9555-01_2D
100
AcDbVertex
100
AcDb2dVertex
 10
1979.751436756544
 20
1838.033841066878
 30
0.0
  0
VERTEX
  5
75
330
73
100
AcDbEntity
  8
Table_Miura_9555-01_2D
100
AcDbVertex
100
AcDb2dVertex
 10
979.7514367565437
 20
1838.033841066878
 30
0.0
  0
SEQEND
  5
76
330
73
100
AcDbEntity
  8
Table_Miura_9555-01_2D
  0
SPLINE
  5
77
330
1F
100
AcDbEntity
  8
Table_Miura_9555-01_2D
100
AcDbSpline
210
0.0
220
0.0
230
1.0
 70
    24
 71
     2
 72
     6
 73
     3
 74
     0
 42
0.0000000001
 43
0.0000000001
 40
-20.0
 40
-20.0
 40
-20.0
 40
0.0
 40
0.0
 40
0.0
 10
979.7514367565437
 20
1838.033841066878
 30
0.0
 10
979.7514367565437
 20
1843.033841066877
 30
0.0
 10
979.7514367565437
 20
1848.033841066877
 30
0.0
  0
POLYLINE
  5
78
330
1F
100
AcDbEntity
  8
Table_Miura_9555-01_2D
100
AcDb2dPolyline
 66
     1
 10
0.0
 20
0.0
 30
0.0
  0
VERTEX
  5
79
330
78
100
AcDbEntity
  8
Table_Miura_9555-01_2D
100
AcDbVertex
100
AcDb2dVertex
 10
979.7514367565437
 20
1848.033841066877
 30
0.0
  0
VERTEX
  5
7A
330
78
100
AcDbEntity
  8
Table_Miura_9555-01_2D
100
AcDbVertex
100
AcDb2dVertex
 10
1979.751436756544
 20
1848.033841066877
 30
0.0
  0
SEQEND
  5
7B
330
78
100
AcDbEntity
  8
Table_Miura_9555-01_2D
  0
SPLINE
  5
7C
330
1F
100
AcDbEntity
  8
Table_Miura_9555-01_2D
100
AcDbSpline
210
0.0
220
0.0
230
1.0
 70
    24
 71
     2
 72
     6
 73
     3
 74
     0
 42
0.0000000001
 43
0.0000000001
 40
-20.0
 40
-20.0
 40
-20.0
 40
0.0
 40
0.0
 40
0.0
 10
1979.751436756544
 20
1848.033841066877
 30
0.0
 10
1979.751436756544
 20
1843.033841066877
 30
0.0
 10
1979.751436756544
 20
1838.033841066878
 30
0.0
  0
SPLINE
  5
7D
330
1F
100
AcDbEntity
  8
Table_Miura_9555-01_2D
100
AcDbSpline
210
0.0
220
0.0
230
1.0
 70
    24
 71
     2
 72
     6
 73
     3
 74
     0
 42
0.0000000001
 43
0.0000000001
 40
0.0
 40
0.0
 40
0.0
 40
20.0
 40
20.0
 40
20.0
 10
-499.9994514731828
 20
1838.033841064589
 30
0.0
 10
-499.9994514731828
 20
1843.03384106459
 30
0.0
 10
-499.9994514731828
 20
1848.03384106459
 30
0.0
  0
SPLINE
  5
7E
330
1F
100
AcDbEntity
  8
Table_Miura_9555-01_2D
100
AcDbSpline
210
0.0
220
0.0
230
1.0
 70
    24
 71
     2
 72
     6
 73
     3
 74
     0
 42
0.0000000001
 43
0.0000000001
 40
0.0
 40
0.0
 40
0.0
 40
1000.0
 40
1000.0
 40
1000.0
 10
-499.9994514731828
 20
1848.03384106459
 30
0.0
 10
0.000548526817056
 20
1848.03384106459
 30
0.0
 10
500.0005485268171
 20
1848.03384106459
 30
0.0
  0
SPLINE
  5
7F
330
1F
100
AcDbEntity
  8
Table_Miura_9555-01_2D
100
AcDbSpline
210
0.0
220
0.0
230
1.0
 70
    24
 71
     2
 72
     6
 73
     3
 74
     0
 42
0.0000000001
 43
0.0000000001
 40
-20.0
 40
-20.0
 40
-20.0
 40
0.0
 40
0.0
 40
0.0
 10
500.0005485268171
 20
1848.03384106459
 30
0.0
 10
500.0005485268171
 20
1843.03384106459
 30
0.0
 10
500.0005485268171
 20
1838.033841064589
 30
0.0
  0
SPLINE
  5
80
330
1F
100
AcDbEntity
  8
Table_Miura_9555-01_2D
100
AcDbSpline
210
0.0
220
0.0
230
1.0
 70
    24
 71
     2
 72
     6
 73
     3
 74
     0
 42
0.0000000001
 43
0.0000000001
 40
-1000.0
 40
-1000.0
 40
-1000.0
 40
0.0
 40
0.0
 40
0.0
 10
500.0005485268171
 20
1838.033841064589
 30
0.0
 10
0.000548526817056
 20
1838.033841064589
 30
0.0
 10
-499.9994514731828
 20
1838.033841064589
 30
0.0
  0
LINE
  5
81
330
1F
100
AcDbEntity
  8
Table_Miura_9555-01_2D
100
AcDbLine
 10
350.2266926853362
 20
1127.12080443325
 30
0.0
 11
23.14230298066104
 21
1504.805278779177
 31
0.0
  0
SPLINE
  5
82
330
1F
100
AcDbEntity
  8
Table_Miura_9555-01_2D
100
AcDbSpline
210
0.0
220
0.0
230
1.0
 70
     8
 71
     5
 72
    12
 73
     6
 74
     0
 42
0.0000000001
 43
0.0000000001
 40
-1.0
 40
-1.0
 40
-1.0
 40
-1.0
 40
-1.0
 40
-1.0
 40
0.0
 40
0.0
 40
0.0
 40
0.0
 40
0.0
 40
0.0
 10
23.14230298066104
 20
1504.805278779177
 30
0.0
 10
23.13944100143999
 20
1504.808583507717
 30
0.0
 10
23.13657902221894
 20
1504.811888236256
 30
0.0
 10
23.13359780760584
 20
1504.815088510186
 30
0.0
 10
23.13071121632129
 20
1504.81837176262
 30
0.0
 10
23.12782455362321
 20
1504.821654952266
 30
0.0
  0
SPLINE
  5
83
330
1F
100
AcDbEntity
  8
Table_Miura_9555-01_2D
100
AcDbSpline
210
0.0
220
0.0
230
1.0
 70
     8
 71
     3
 72
    15
 73
    11
 74
     0
 42
0.0000000001
 43
0.0000000001
 40
-17.32695060162203
 40
-17.32695060162203
 40
-17.32695060162203
 40
-17.32695060162203
 40
-14.68355992114336
 40
-12.30992601284868
 40
-9.953021317401363
 40
-7.666287083349557
 40
-3.639233357410876
 40
-1.776264706140458
 40
-0.8793827298841641
 40
0.0
 40
0.0
 40
0.0
 40
0.0
 10
23.12782455362321
 20
1504.821654952266
 30
0.0
 10
22.54604813814149
 20
1505.483347191181
 30
0.0
 10
21.43501718006246
 20
1506.733672738912
 30
0.0
 10
19.73825244659565
 20
1508.512365177023
 30
0.0
 10
18.07376585995462
 20
1510.156436285612
 30
0.0
 10
15.94375721069446
 20
1512.110284117772
 30
0.0
 10
13.84403483532788
 20
1513.85172076804
 30
0.0
 10
11.98974395432288
 20
1515.15052994454
 30
0.0
 10
10.96955138758949
 20
1515.806368274819
 30
0.0
 10
10.46144486897902
 20
1516.110904916438
 30
0.0
 10
10.20810180308126
 20
1516.258194444954
 30
0.0
  0
SPLINE
  5
84
330
1F
100
AcDbEntity
  8
Table_Miura_9555-01_2D
100
AcDbSpline
210
0.0
220
0.0
230
1.0
 70
    12
 71
     2
 72
     6
 73
     3
 74
     0
 42
0.0000000001
 43
0.0000000001
 40
0.0
 40
0.0
 40
0.0
 40
0.1469556320606097
 40
0.1469556320606097
 40
0.1469556320606097
 10
10.20810180308126
 20
1516.258194444954
 30
0.0
 41
1.0
 10
10.14457501263129
 20
1516.295118202534
 30
0.0
 41
0.9999969449633208
 10
10.08123403574882
 20
1516.332359739671
 30
0.0
 41
1.0
  0
SPLINE
  5
85
330
1F
100
AcDbEntity
  8
Table_Miura_9555-01_2D
100
AcDbSpline
210
0.0
220
0.0
230
1.0
 70
     8
 71
     5
 72
    12
 73
     6
 74
     0
 42
0.0000000001
 43
0.0000000001
 40
-1.0
 40
-1.0
 40
-1.0
 40
-1.0
 40
-1.0
 40
-1.0
 40
0.0
 40
0.0
 40
0.0
 40
0.0
 40
0.0
 40
0.0
 10
10.08123403574882
 20
1516.332359739671
 30
0.0
 10
10.07790875439514
 20
1516.334314849857
 30
0.0
 10
10.07458379442687
 20
1516.336270506659
 30
0.0
 10
10.07125743677352
 20
1516.338223787555
 30
0.0
 10
10.06793097806167
 20
1516.340176894094
 30
0.0
 10
10.06460406842234
 20
1516.342129232223
 30
0.0
  0
SPLINE
  5
86
330
1F
100
AcDbEntity
  8
Table_Miura_9555-01_2D
100
AcDbSpline
210
0.0
220
0.0
230
1.0
 70
    12
 71
     2
 72
     6
 73
     3
 74
     0
 42
0.0000000001
 43
0.0000000001
 40
0.0
 40
0.0
 40
0.0
 40
1.059455396730205
 40
1.059455396730205
 40
1.059455396730205
 10
10.06460406842234
 20
1516.342129232223
 30
0.0
 41
1.0
 10
9.607635693951278
 20
1516.610293047225
 30
0.0
 41
0.9996780901699672
 10
9.137652547193283
 20
1516.854931083326
 30
0.0
 41
1.0
  0
SPLINE
  5
87
330
1F
100
AcDbEntity
  8
Table_Miura_9555-01_2D
100
AcDbSpline
210
0.0
220
0.0
230
1.0
 70
     8
 71
     5
 72
    12
 73
     6
 74
     0
 42
0.0000000001
 43
0.0000000001
 40
0.0
 40
0.0
 40
0.0
 40
0.0
 40
0.0
 40
0.0
 40
1.0
 40
1.0
 40
1.0
 40
1.0
 40
1.0
 40
1.0
 10
9.137652547193283
 20
1516.854931083326
 30
0.0
 10
8.891412462759944
 20
1516.983105233996
 30
0.0
 10
8.643041915711364
 20
1517.107186474423
 30
0.0
 10
8.392495200630946
 20
1517.22746055331
 30
0.0
 10
8.140035866567812
 20
1517.342992821376
 30
0.0
 10
7.88575438035059
 20
1517.454364801016
 30
0.0
  0
SPLINE
  5
88
330
1F
100
AcDbEntity
  8
Table_Miura_9555-01_2D
100
AcDbSpline
210
0.0
220
0.0
230
1.0
 70
     8
 71
     3
 72
    11
 73
     7
 74
     0
 42
0.0000000001
 43
0.0000000001
 40
0.0
 40
0.0
 40
0.0
 40
0.0
 40
0.9078897846316703
 40
1.83413863357669
 40
3.620644636221537
 40
7.168114128633167
 40
7.168114128633167
 40
7.168114128633167
 40
7.168114128633167
 10
7.88575438035059
 20
1517.454364801016
 30
0.0
 10
7.608560858546297
 20
1517.575771953877
 30
0.0
 10
7.043248404551378
 20
1517.809087256226
 30
0.0
 10
5.907567321080023
 20
1518.218286712203
 30
0.0
 10
3.899641124330628
 20
1518.794128237093
 30
0.0
 10
2.132469937944734
 20
1519.048561216506
 30
0.0
 10
0.9514292763915364
 20
1519.108094766622
 30
0.0
  0
SPLINE
  5
89
330
1F
100
AcDbEntity
  8
Table_Miura_9555-01_2D
100
AcDbSpline
210
0.0
220
0.0
230
1.0
 70
    12
 71
     2
 72
     6
 73
     3
 74
     0
 42
0.0000000001
 43
0.0000000001
 40
-1.522042370303901
 40
-1.522042370303901
 40
-1.522042370303901
 40
0.0
 40
0.0
 40
0.0
 10
0.9514292763915364
 20
1519.108094766622
 30
0.0
 41
1.0
 10
-0.0000796255818667
 20
1519.153596120395
 30
0.0
 41
0.7239225688158023
 10
-0.0002123606356052
 20
1520.106192357707
 30
0.0
 41
0.9999999691280612
  0
SPLINE
  5
8A
330
1F
100
AcDbEntity
  8
Table_Miura_9555-01_2D
100
AcDbSpline
210
0.0
220
0.0
230
1.0
 70
    12
 71
     2
 72
     6
 73
     3
 74
     0
 42
0.0000000001
 43
0.0000000001
 40
0.0
 40
0.0
 40
0.0
 40
1.522042370303901
 40
1.522042370303901
 40
1.522042370303901
 10
-0.0002123606356052
 20
1520.106192357707
 30
0.0
 41
0.9999999691280612
 10
-0.0003450956886074
 20
1519.153596120395
 30
0.0
 41
0.7239225688158023
 10
-0.9518539976625108
 20
1519.108094766622
 30
0.0
 41
1.0
  0
SPLINE
  5
8B
330
1F
100
AcDbEntity
  8
Table_Miura_9555-01_2D
100
AcDbSpline
210
0.0
220
0.0
230
1.0
 70
     8
 71
     3
 72
    11
 73
     7
 74
     0
 42
0.0000000001
 43
0.0000000001
 40
-7.168114128633167
 40
-7.168114128633167
 40
-7.168114128633167
 40
-7.168114128633167
 40
-3.620644636221537
 40
-1.83413863357669
 40
-0.9078897846316703
 40
0.0
 40
0.0
 40
0.0
 40
0.0
 10
-0.9518539976625108
 20
1519.108094766622
 30
0.0
 10
-2.132894659215708
 20
1519.048561216506
 30
0.0
 10
-3.900065845601602
 20
1518.794128237093
 30
0.0
 10
-5.907992042350996
 20
1518.218286712203
 30
0.0
 10
-7.043673125822352
 20
1517.809087256226
 30
0.0
 10
-7.608985579817272
 20
1517.575771953877
 30
0.0
 10
-7.886179101621565
 20
1517.454364801016
 30
0.0
  0
SPLINE
  5
8C
330
1F
100
AcDbEntity
  8
Table_Miura_9555-01_2D
100
AcDbSpline
210
0.0
220
0.0
230
1.0
 70
     8
 71
     5
 72
    12
 73
     6
 74
     0
 42
0.0000000001
 43
0.0000000001
 40
-1.0
 40
-1.0
 40
-1.0
 40
-1.0
 40
-1.0
 40
-1.0
 40
0.0
 40
0.0
 40
0.0
 40
0.0
 40
0.0
 40
0.0
 10
-7.886179101621565
 20
1517.454364801016
 30
0.0
 10
-8.140460587838786
 20
1517.342992821376
 30
0.0
 10
-8.392919921901921
 20
1517.22746055331
 30
0.0
 10
-8.643466636982338
 20
1517.107186474423
 30
0.0
 10
-8.89183718403092
 20
1516.983105233996
 30
0.0
 10
-9.138077268464257
 20
1516.854931083326
 30
0.0
  0
SPLINE
  5
8D
330
1F
100
AcDbEntity
  8
Table_Miura_9555-01_2D
100
AcDbSpline
210
0.0
220
0.0
230
1.0
 70
    12
 71
     2
 72
     6
 73
     3
 74
     0
 42
0.0000000001
 43
0.0000000001
 40
-1.059455396730205
 40
-1.059455396730205
 40
-1.059455396730205
 40
0.0
 40
0.0
 40
0.0
 10
-9.138077268464257
 20
1516.854931083326
 30
0.0
 41
1.0
 10
-9.608060415222636
 20
1516.610293047225
 30
0.0
 41
0.9996780901699672
 10
-10.06502878969332
 20
1516.342129232223
 30
0.0
 41
1.0
  0
SPLINE
  5
8E
330
1F
100
AcDbEntity
  8
Table_Miura_9555-01_2D
100
AcDbSpline
210
0.0
220
0.0
230
1.0
 70
     8
 71
     5
 72
    12
 73
     6
 74
     0
 42
0.0000000001
 43
0.0000000001
 40
0.0
 40
0.0
 40
0.0
 40
0.0
 40
0.0
 40
0.0
 40
1.0
 40
1.0
 40
1.0
 40
1.0
 40
1.0
 40
1.0
 10
-10.06502878969332
 20
1516.342129232223
 30
0.0
 10
-10.06835569933264
 20
1516.340176894094
 30
0.0
 10
-10.0716821580445
 20
1516.338223787555
 30
0.0
 10
-10.07500851569785
 20
1516.336270506659
 30
0.0
 10
-10.07833347566611
 20
1516.334314849857
 30
0.0
 10
-10.0816587570198
 20
1516.332359739671
 30
0.0
  0
SPLINE
  5
8F
330
1F
100
AcDbEntity
  8
Table_Miura_9555-01_2D
100
AcDbSpline
210
0.0
220
0.0
230
1.0
 70
    12
 71
     2
 72
     6
 73
     3
 74
     0
 42
0.0000000001
 43
0.0000000001
 40
-0.1469556320606097
 40
-0.1469556320606097
 40
-0.1469556320606097
 40
0.0
 40
0.0
 40
0.0
 10
-10.0816587570198
 20
1516.332359739671
 30
0.0
 41
1.0
 10
-10.14499973390198
 20
1516.295118202534
 30
0.0
 41
0.9999969449633208
 10
-10.20852652435224
 20
1516.258194444954
 30
0.0
 41
1.0
  0
SPLINE
  5
90
330
1F
100
AcDbEntity
  8
Table_Miura_9555-01_2D
100
AcDbSpline
210
0.0
220
0.0
230
1.0
 70
     8
 71
     3
 72
    15
 73
    11
 74
     0
 42
0.0000000001
 43
0.0000000001
 40
0.0
 40
0.0
 40
0.0
 40
0.0
 40
0.8793827298841641
 40
1.776264706140458
 40
3.639233357410876
 40
7.666287083349557
 40
9.953021317401363
 40
12.30992601284868
 40
14.68355992114336
 40
17.32695060162203
 40
17.32695060162203
 40
17.32695060162203
 40
17.32695060162203
 10
-10.20852652435224
 20
1516.258194444954
 30
0.0
 10
-10.46186959024999
 20
1516.110904916438
 30
0.0
 10
-10.96997610886046
 20
1515.806368274819
 30
0.0
 10
-11.99016867559385
 20
1515.15052994454
 30
0.0
 10
-13.84445955659885
 20
1513.85172076804
 30
0.0
 10
-15.94418193196543
 20
1512.110284117772
 30
0.0
 10
-18.07419058122559
 20
1510.156436285612
 30
0.0
 10
-19.73867716786662
 20
1508.512365177023
 30
0.0
 10
-21.43544190133343
 20
1506.733672738912
 30
0.0
 10
-22.54647285941246
 20
1505.483347191181
 30
0.0
 10
-23.12824927489419
 20
1504.821654952266
 30
0.0
  0
SPLINE
  5
91
330
1F
100
AcDbEntity
  8
Table_Miura_9555-01_2D
100
AcDbSpline
210
0.0
220
0.0
230
1.0
 70
     8
 71
     5
 72
    12
 73
     6
 74
     0
 42
0.0000000001
 43
0.0000000001
 40
0.0
 40
0.0
 40
0.0
 40
0.0
 40
0.0
 40
0.0
 40
1.0
 40
1.0
 40
1.0
 40
1.0
 40
1.0
 40
1.0
 10
-23.12824927489419
 20
1504.821654952266
 30
0.0
 10
-23.13113593759226
 20
1504.81837176262
 30
0.0
 10
-23.13402252887681
 20
1504.815088510186
 30
0.0
 10
-23.13700374348991
 20
1504.811888236256
 30
0.0
 10
-23.13986572271097
 20
1504.808583507717
 30
0.0
 10
-23.14272770193202
 20
1504.805278779177
 30
0.0
  0
LINE
  5
92
330
1F
100
AcDbEntity
  8
Table_Miura_9555-01_2D
100
AcDbLine
 10
-23.14272770193202
 20
1504.805278779177
 30
0.0
 11
-350.2271174066071
 21
1127.12080443325
 31
0.0
  0
LINE
  5
93
330
1F
100
AcDbEntity
  8
Table_Miura_9555-01_2D
100
AcDbLine
 10
-350.2271174066071
 20
1127.12080443325
 30
0.0
 11
-394.8951638730757
 21
1127.120219827668
 31
0.0
  0
LINE
  5
94
330
1F
100
AcDbEntity
  8
Table_Miura_9555-01_2D
100
AcDbLine
 10
-394.8951638730757
 20
1127.120219827668
 30
0.0
 11
-52.54829839391096
 21
1522.428991665893
 31
0.0
  0
SPLINE
  5
95
330
1F
100
AcDbEntity
  8
Table_Miura_9555-01_2D
100
AcDbSpline
210
0.0
220
0.0
230
1.0
 70
     8
 71
     5
 72
    12
 73
     6
 74
     0
 42
0.0000000001
 43
0.0000000001
 40
-1.0
 40
-1.0
 40
-1.0
 40
-1.0
 40
-1.0
 40
-1.0
 40
0.0
 40
0.0
 40
0.0
 40
0.0
 40
0.0
 40
0.0
 10
-52.54829839391096
 20
1522.428991665893
 30
0.0
 10
-52.53996893084694
 20
1522.438609719671
 30
0.0
 10
-52.53163946778295
 20
1522.44822777345
 30
0.0
 10
-52.52329182290033
 20
1522.457830096181
 30
0.0
 10
-52.51497143958022
 20
1522.46745600574
 30
0.0
 10
-52.50665096721514
 20
1522.47708183833
 30
0.0
  0
SPLINE
  5
96
330
1F
100
AcDbEntity
  8
Table_Miura_9555-01_2D
100
AcDbSpline
210
0.0
220
0.0
230
1.0
 70
     8
 71
     3
 72
    18
 73
    14
 74
     0
 42
0.0000000001
 43
0.0000000001
 40
0.0
 40
0.0
 40
0.0
 40
0.0
 40
1.224399517688125
 40
3.216127340650388
 40
5.359452356478953
 40
6.616257952753485
 40
8.473068222320627
 40
11.37665901709092
 40
13.15870189535763
 40
18.5887311986106
 40
21.30318735092228
 40
22.53576743944416
 40
23.95196467547641
 40
23.95196467547641
 40
23.95196467547641
 40
23.95196467547641
 10
-52.50665096721514
 20
1522.47708183833
 30
0.0
 10
-52.23975132457508
 20
1522.785854125006
 30
0.0
 10
-51.53841222842857
 20
1523.596639299599
 30
0.0
 10
-50.37022224334759
 20
1524.948282690574
 30
0.0
 10
-49.18944519123215
 20
1526.303245848608
 30
0.0
 10
-48.0390209323823
 20
1527.625072411727
 30
0.0
 10
-46.73393775429032
 20
1529.148117751417
 30
0.0
 10
-45.34309688435314
 20
1530.82814511909
 30
0.0
 10
-43.25649248572427
 20
1533.477022745559
 30
0.0
 10
-41.30113304855057
 20
1536.147760734002
 30
0.0
 10
-39.55744785552361
 20
1538.742227872921
 30
0.0
 10
-38.59092881380275
 20
1540.246239415102
 30
0.0
 10
-38.12539052080229
 20
1540.996491164346
 30
0.0
 10
-37.87721928705832
 20
1541.39805379393
 30
0.0
  0
SPLINE
  5
97
330
1F
100
AcDbEntity
  8
Table_Miura_9555-01_2D
100
AcDbSpline
210
0.0
220
0.0
230
1.0
 70
     8
 71
     5
 72
    12
 73
     6
 74
     0
 42
0.0000000001
 43
0.0000000001
 40
-1.0
 40
-1.0
 40
-1.0
 40
-1.0
 40
-1.0
 40
-1.0
 40
0.0
 40
0.0
 40
0.0
 40
0.0
 40
0.0
 40
0.0
 10
-37.87721928705832
 20
1541.39805379393
 30
0.0
 10
-37.87389004900342
 20
1541.403440790512
 30
0.0
 10
-37.87056091958857
 20
1541.408827854235
 30
0.0
 10
-37.8672511782288
 20
1541.414226899497
 30
0.0
 10
-37.86391823784379
 20
1541.419611606232
 30
0.0
 10
-37.860585453358
 20
1541.424996409456
 30
0.0
  0
SPLINE
  5
98
330
1F
100
AcDbEntity
  8
Table_Miura_9555-01_2D
100
AcDbSpline
210
0.0
220
0.0
230
1.0
 70
     8
 71
     3
 72
    15
 73
    11
 74
     0
 42
0.0000000001
 43
0.0000000001
 40
0.0
 40
0.0
 40
0.0
 40
0.0
 40
2.763377139235542
 40
5.271537957085918
 40
10.5998510122942
 40
21.59382453005134
 40
32.87822943471982
 40
38.64978450157578
 40
41.3966023543671
 40
44.15779849543482
 40
44.15779849543482
 40
44.15779849543482
 40
44.15779849543482
 10
-37.860585453358
 20
1541.424996409456
 30
0.0
 10
-37.37588947208224
 20
1542.208123099382
 30
0.0
 10
-36.45841320222554
 20
1543.707363461474
 30
0.0
 10
-34.73629597879063
 20
1546.79299577078
 30
0.0
 10
-31.9672753451041
 20
1552.430597372299
 30
0.0
 10
-28.75361731848079
 20
1561.07389435538
 30
0.0
 10
-26.61448722374007
 20
1570.194012333743
 30
0.0
 10
-25.69991076587849
 20
1576.734391666033
 30
0.0
 10
-25.35096906454328
 20
1580.478475398176
 30
0.0
 10
-25.24417480083048
 20
1582.31170270305
 30
0.0
 10
-25.20405249918895
 20
1583.231188057943
 30
0.0
  0
SPLINE
  5
99
330
1F
100
AcDbEntity
  8
Table_Miura_9555-01_2D
100
AcDbSpline
210
0.0
220
0.0
230
1.0
 70
    12
 71
     2
 72
     6
 73
     3
 74
     0
 42
0.0000000001
 43
0.0000000001
 40
-0.0038962172915295
 40
-0.0038962172915295
 40
-0.0038962172915295
 40
0.0
 40
0.0
 40
0.0
 10
-25.20405249918895
 20
1583.231188057943
 30
0.0
 41
1.0
 10
-25.20398985246561
 20
1583.233135273904
 30
0.0
 41
0.99999999708734
 10
-25.20390396217408
 20
1583.235081490084
 30
0.0
 41
1.0
  0
SPLINE
  5
9A
330
1F
100
AcDbEntity
  8
Table_Miura_9555-01_2D
100
AcDbSpline
210
0.0
220
0.0
230
1.0
 70
    12
 71
     2
 72
     6
 73
     3
 74
     0
 42
0.0000000001
 43
0.0000000001
 40
0.0
 40
0.0
 40
0.0
 40
0.0174069048050353
 40
0.0174069048050353
 40
0.0174069048050353
 10
-25.20390396217408
 20
1583.235081490084
 30
0.0
 41
1.0
 10
-25.20352919290611
 20
1583.243776870756
 30
0.0
 41
0.9999999593102531
 10
-25.20315418998965
 20
1583.252472241538
 30
0.0
 41
1.0
  0
SPLINE
  5
9B
330
1F
100
AcDbEntity
  8
Table_Miura_9555-01_2D
100
AcDbSpline
210
0.0
220
0.0
230
1.0
 70
    12
 71
     2
 72
     6
 73
     3
 74
     0
 42
0.0000000001
 43
0.0000000001
 40
-0.8650636015552052
 40
-0.8650636015552052
 40
-0.8650636015552052
 40
0.0
 40
0.0
 40
0.0
 10
-25.20315418998965
 20
1583.252472241538
 30
0.0
 41
0.99999999999989
 10
-25.18245262805397
 20
1583.684509818501
 30
0.0
 41
0.9999949169942276
 10
-25.16450434144917
 20
1584.116670531175
 30
0.0
 41
1.0
  0
SPLINE
  5
9C
330
1F
100
AcDbEntity
  8
Table_Miura_9555-01_2D
100
AcDbSpline
210
0.0
220
0.0
230
1.0
 70
    12
 71
     2
 72
     6
 73
     3
 74
     0
 42
0.0000000001
 43
0.0000000001
 40
-0.3764503268402766
 40
-0.3764503268402766
 40
-0.3764503268402766
 40
0.0
 40
0.0
 40
0.0
 10
-25.16450434144917
 20
1584.116670531175
 30
0.0
 41
1.0
 10
-25.15724656110802
 20
1584.30475590398
 30
0.0
 41
0.9999985034549736
 10
-25.15063961904798
 20
1584.492865263544
 30
0.0
 41
1.0
  0
SPLINE
  5
9D
330
1F
100
AcDbEntity
  8
Table_Miura_9555-01_2D
100
AcDbSpline
210
0.0
220
0.0
230
1.0
 70
     8
 71
     5
 72
    12
 73
     6
 74
     0
 42
0.0000000001
 43
0.0000000001
 40
-1.0
 40
-1.0
 40
-1.0
 40
-1.0
 40
-1.0
 40
-1.0
 40
0.0
 40
0.0
 40
0.0
 40
0.0
 40
0.0
 40
0.0
 10
-25.15063961904798
 20
1584.492865263544
 30
0.0
 10
-25.14535140965927
 20
1584.643428364034
 30
0.0
 10
-25.14032381387733
 20
1584.794000618024
 30
0.0
 10
-25.13572893765649
 20
1584.944588605331
 30
0.0
 10
-25.13023399996291
 20
1585.095144477613
 30
0.0
 10
-25.12450981285383
 20
1585.245691633248
 30
0.0
  0
SPLINE
  5
9E
330
1F
100
AcDbEntity
  8
Table_Miura_9555-01_2D
100
AcDbSpline
210
0.0
220
0.0
230
1.0
 70
     8
 71
     3
 72
    15
 73
    11
 74
     0
 42
0.0000000001
 43
0.0000000001
 40
0.0
 40
0.0
 40
0.0
 40
0.0
 40
0.9361505302432512
 40
1.592389293923228
 40
2.107271700881923
 40
2.520270126564128
 40
2.899529664530076
 40
3.247808135525446
 40
3.588551735127003
 40
3.919177605417825
 40
3.919177605417825
 40
3.919177605417825
 40
3.919177605417825
 10
-25.12450981285383
 20
1585.245691633248
 30
0.0
 10
-25.11265364739938
 20
1585.557510927757
 30
0.0
 10
-25.09047666868719
 20
1586.087895734201
 30
0.0
 10
-25.0342341123378
 20
1586.788263844854
 30
0.0
 10
-24.95572246430311
 20
1587.31094494126
 30
0.0
 10
-24.84167179300857
 20
1587.732550613035
 30
0.0
 10
-24.67785674094284
 20
1588.078012633073
 30
0.0
 10
-24.45194335542783
 20
1588.357010711544
 30
0.0
 10
-24.17345661530636
 20
1588.557437684316
 30
0.0
 10
-23.96082343531089
 20
1588.633986942655
 30
0.0
 10
-23.85294376439197
 20
1588.656562473193
 30
0.0
  0
LINE
  5
9F
330
1F
100
AcDbEntity
  8
Table_Miura_9555-01_2D
100
AcDbLine
 10
-23.85294376439197
 20
1588.656562473193
 30
0.0
 11
-21.65120270755415
 21
1588.656470129199
 31
0.0
  0
SPLINE
  5
A0
330
1F
100
AcDbEntity
  8
Table_Miura_9555-01_2D
100
AcDbSpline
210
0.0
220
0.0
230
1.0
 70
     8
 71
     3
 72
    18
 73
    14
 74
     0
 42
0.0000000001
 43
0.0000000001
 40
-11.35744832993483
 40
-11.35744832993483
 40
-11.35744832993483
 40
-11.35744832993483
 40
-7.387935346890758
 40
-6.716881895257425
 40
-6.413782533532998
 40
-6.129926738348678
 40
-5.827549416049516
 40
-5.506991273313296
 40
-4.870777299577193
 40
-3.713958932632885
 40
-2.530514856758515
 40
-1.285072805565842
 40
0.0
 40
0.0
 40
0.0
 40
0.0
 10
-21.65120270755415
 20
1588.656470129199
 30
0.0
 10
-20.32802257090225
 20
1588.656359137561
 30
0.0
 10
-18.78119149766644
 20
1588.656664153592
 30
0.0
 10
-17.13327648800441
 20
1588.656315687317
 30
0.0
 10
-16.71398513425447
 20
1588.656885140999
 30
0.0
 10
-16.41738650133266
 20
1588.657218077079
 30
0.0
 10
-16.1162175253794
 20
1588.626085195951
 30
0.0
 10
-15.70452936415222
 20
1588.542593012324
 30
0.0
 10
-15.03817042510036
 20
1588.303745210962
 30
0.0
 10
-14.20254755704173
 20
1587.750271317712
 30
0.0
 10
-13.4090826156571
 20
1586.843950101026
 30
0.0
 10
-12.83340723724268
 20
1585.738620606278
 30
0.0
 10
-12.62152456793046
 20
1584.916556586863
 30
0.0
 10
-12.56074352844553
 20
1584.492579768389
 30
0.0
  0
SPLINE
  5
A1
330
1F
100
AcDbEntity
  8
Table_Miura_9555-01_2D
100
AcDbSpline
210
0.0
220
0.0
230
1.0
 70
    12
 71
     3
 72
    10
 73
     6
 74
     0
 42
0.0000000001
 43
0.0000000001
 40
-1.41140165102152
 40
-1.41140165102152
 40
-1.41140165102152
 40
-1.41140165102152
 40
-0.7080503722075561
 40
-0.7080503722075561
 40
-0.0049548029583888
 40
-0.0049548029583888
 40
-0.0049548029583888
 40
-0.0049548029583888
 10
-12.56074352844553
 20
1584.492579768389
 30
0.0
 41
1.0
 10
-12.52714964274855
 20
1584.258718030419
 30
0.0
 41
1.0
 10
-12.42319759158636
 20
1584.0467334138
 30
0.0
 41
1.0
 10
-12.10781020657396
 20
1583.740188124973
 30
0.0
 41
1.0
 10
-11.90740831737639
 20
1583.656464667099
 30
0.0
 41
1.0
 10
-11.69797530693995
 20
1583.656470035089
 30
0.0
 41
1.0
  0
SPLINE
  5
A2
330
1F
100
AcDbEntity
  8
Table_Miura_9555-01_2D
100
AcDbSpline
210
0.0
220
0.0
230
1.0
 70
    12
 71
     2
 72
     6
 73
     3
 74
     0
 42
0.0000000001
 43
0.0000000001
 40
0.0
 40
0.0
 40
0.0
 40
11.69797561871451
 40
11.69797561871451
 40
11.69797561871451
 10
-11.69797530693995
 20
1583.656470035089
 30
0.0
 41
1.0
 10
-5.849093833787264
 20
1583.65647000208
 30
0.0
 41
1.0
 10
-0.0002123606354871
 20
1583.656470028983
 30
0.0
 41
1.0
  0
SPLINE
  5
A3
330
1F
100
AcDbEntity
  8
Table_Miura_9555-01_2D
100
AcDbSpline
210
0.0
220
0.0
230
1.0
 70
    12
 71
     2
 72
     6
 73
     3
 74
     0
 42
0.0000000001
 43
0.0000000001
 40
-11.69797561871451
 40
-11.69797561871451
 40
-11.69797561871451
 40
0.0
 40
0.0
 40
0.0
 10
-0.0002123606354871
 20
1583.656470028983
 30
0.0
 41
1.0
 10
5.848669112516291
 20
1583.65647000208
 30
0.0
 41
1.0
 10
11.69755058566898
 20
1583.656470035089
 30
0.0
 41
1.0
  0
SPLINE
  5
A4
330
1F
100
AcDbEntity
  8
Table_Miura_9555-01_2D
100
AcDbSpline
210
0.0
220
0.0
230
1.0
 70
    12
 71
     3
 72
    10
 73
     6
 74
     0
 42
0.0000000001
 43
0.0000000001
 40
0.0049548029583888
 40
0.0049548029583888
 40
0.0049548029583888
 40
0.0049548029583888
 40
0.7080503722075561
 40
0.7080503722075561
 40
1.41140165102152
 40
1.41140165102152
 40
1.41140165102152
 40
1.41140165102152
 10
11.69755058566898
 20
1583.656470035089
 30
0.0
 41
1.0
 10
11.90698359610542
 20
1583.656464667099
 30
0.0
 41
1.0
 10
12.10738548530298
 20
1583.740188124973
 30
0.0
 41
1.0
 10
12.42277287031538
 20
1584.0467334138
 30
0.0
 41
1.0
 10
12.52672492147758
 20
1584.258718030419
 30
0.0
 41
1.0
 10
12.56031880717455
 20
1584.492579768389
 30
0.0
 41
1.0
  0
SPLINE
  5
A5
330
1F
100
AcDbEntity
  8
Table_Miura_9555-01_2D
100
AcDbSpline
210
0.0
220
0.0
230
1.0
 70
     8
 71
     3
 72
    18
 73
    14
 74
     0
 42
0.0000000001
 43
0.0000000001
 40
0.0
 40
0.0
 40
0.0
 40
0.0
 40
1.285072805565842
 40
2.530514856758515
 40
3.713958932632885
 40
4.870777299577193
 40
5.506991273313296
 40
5.827549416049516
 40
6.129926738348678
 40
6.413782533532998
 40
6.716881895257425
 40
7.387935346890758
 40
11.35744832993483
 40
11.35744832993483
 40
11.35744832993483
 40
11.35744832993483
 10
12.56031880717455
 20
1584.492579768389
 30
0.0
 10
12.62109984665949
 20
1584.916556586863
 30
0.0
 10
12.83298251597171
 20
1585.738620606278
 30
0.0
 10
13.40865789438612
 20
1586.843950101026
 30
0.0
 10
14.20212283577075
 20
1587.750271317712
 30
0.0
 10
15.03774570382939
 20
1588.303745210962
 30
0.0
 10
15.70410464288125
 20
1588.542593012324
 30
0.0
 10
16.11579280410842
 20
1588.626085195951
 30
0.0
 10
16.41696178006168
 20
1588.657218077079
 30
0.0
 10
16.7135604129835
 20
1588.656885140999
 30
0.0
 10
17.13285176673344
 20
1588.656315687317
 30
0.0
 10
18.78076677639547
 20
1588.656664153592
 30
0.0
 10
20.32759784963127
 20
1588.656359137561
 30
0.0
 10
21.65077798628317
 20
1588.656470129199
 30
0.0
  0
LINE
  5
A6
330
1F
100
AcDbEntity
  8
Table_Miura_9555-01_2D
100
AcDbLine
 10
21.65077798628317
 20
1588.656470129199
 30
0.0
 11
23.85251904312099
 21
1588.656562473193
 31
0.0
  0
SPLINE
  5
A7
330
1F
100
AcDbEntity
  8
Table_Miura_9555-01_2D
100
AcDbSpline
210
0.0
220
0.0
230
1.0
 70
     8
 71
     3
 72
    15
 73
    11
 74
     0
 42
0.0000000001
 43
0.0000000001
 40
-3.919177605417825
 40
-3.919177605417825
 40
-3.919177605417825
 40
-3.919177605417825
 40
-3.588551735127003
 40
-3.247808135525446
 40
-2.899529664530076
 40
-2.520270126564128
 40
-2.107271700881923
 40
-1.592389293923228
 40
-0.9361505302432512
 40
0.0
 40
0.0
 40
0.0
 40
0.0
 10
23.85251904312099
 20
1588.656562473193
 30
0.0
 10
23.96039871403991
 20
1588.633986942655
 30
0.0
 10
24.17303189403538
 20
1588.557437684316
 30
0.0
 10
24.45151863415687
 20
1588.357010711544
 30
0.0
 10
24.67743201967187
 20
1588.078012633073
 30
0.0
 10
24.8412470717376
 20
1587.732550613035
 30
0.0
 10
24.95529774303213
 20
1587.31094494126
 30
0.0
 10
25.03380939106682
 20
1586.788263844854
 30
0.0
 10
25.09005194741621
 20
1586.087895734201
 30
0.0
 10
25.11222892612841
 20
1585.557510927757
 30
0.0
 10
25.12408509158286
 20
1585.245691633248
 30
0.0
  0
SPLINE
  5
A8
330
1F
100
AcDbEntity
  8
Table_Miura_9555-01_2D
100
AcDbSpline
210
0.0
220
0.0
230
1.0
 70
     8
 71
     5
 72
    12
 73
     6
 74
     0
 42
0.0000000001
 43
0.0000000001
 40
0.0
 40
0.0
 40
0.0
 40
0.0
 40
0.0
 40
0.0
 40
1.0
 40
1.0
 40
1.0
 40
1.0
 40
1.0
 40
1.0
 10
25.12408509158286
 20
1585.245691633248
 30
0.0
 10
25.12980927869194
 20
1585.095144477613
 30
0.0
 10
25.13530421638552
 20
1584.944588605331
 30
0.0
 10
25.13989909260636
 20
1584.794000618024
 30
0.0
 10
25.1449266883883
 20
1584.643428364034
 30
0.0
 10
25.150214897777
 20
1584.492865263544
 30
0.0
  0
SPLINE
  5
A9
330
1F
100
AcDbEntity
  8
Table_Miura_9555-01_2D
100
AcDbSpline
210
0.0
220
0.0
230
1.0
 70
    12
 71
     2
 72
     6
 73
     3
 74
     0
 42
0.0000000001
 43
0.0000000001
 40
0.0
 40
0.0
 40
0.0
 40
0.3764503268402766
 40
0.3764503268402766
 40
0.3764503268402766
 10
25.150214897777
 20
1584.492865263544
 30
0.0
 41
1.0
 10
25.15682183983749
 20
1584.30475590398
 30
0.0
 41
0.9999985034549736
 10
25.1640796201782
 20
1584.116670531175
 30
0.0
 41
1.0
  0
SPLINE
  5
AA
330
1F
100
AcDbEntity
  8
Table_Miura_9555-01_2D
100
AcDbSpline
210
0.0
220
0.0
230
1.0
 70
    12
 71
     2
 72
     6
 73
     3
 74
     0
 42
0.0000000001
 43
0.0000000001
 40
0.0
 40
0.0
 40
0.0
 40
0.8650636015552052
 40
0.8650636015552052
 40
0.8650636015552052
 10
25.1640796201782
 20
1584.116670531175
 30
0.0
 41
1.0
 10
25.18202790678284
 20
1583.684509818501
 30
0.0
 41
0.9999949169942276
 10
25.20272946871865
 20
1583.252472241538
 30
0.0
 41
0.99999999999989
  0
SPLINE
  5
AB
330
1F
100
AcDbEntity
  8
Table_Miura_9555-01_2D
100
AcDbSpline
210
0.0
220
0.0
230
1.0
 70
    12
 71
     2
 72
     6
 73
     3
 74
     0
 42
0.0000000001
 43
0.0000000001
 40
-0.0174069048050353
 40
-0.0174069048050353
 40
-0.0174069048050353
 40
0.0
 40
0.0
 40
0.0
 10
25.20272946871865
 20
1583.252472241538
 30
0.0
 41
1.0
 10
25.20310447163471
 20
1583.243776870756
 30
0.0
 41
0.9999999593102531
 10
25.20347924090311
 20
1583.235081490084
 30
0.0
 41
1.0
  0
SPLINE
  5
AC
330
1F
100
AcDbEntity
  8
Table_Miura_9555-01_2D
100
AcDbSpline
210
0.0
220
0.0
230
1.0
 70
    12
 71
     2
 72
     6
 73
     3
 74
     0
 42
0.0000000001
 43
0.0000000001
 40
0.0
 40
0.0
 40
0.0
 40
0.0038962172915295
 40
0.0038962172915295
 40
0.0038962172915295
 10
25.20347924090311
 20
1583.235081490084
 30
0.0
 41
1.0
 10
25.20356513119452
 20
1583.233135273904
 30
0.0
 41
0.99999999708734
 10
25.20362777791797
 20
1583.231188057943
 30
0.0
 41
1.0
  0
SPLINE
  5
AD
330
1F
100
AcDbEntity
  8
Table_Miura_9555-01_2D
100
AcDbSpline
210
0.0
220
0.0
230
1.0
 70
     8
 71
     3
 72
    15
 73
    11
 74
     0
 42
0.0000000001
 43
0.0000000001
 40
-44.15779849543482
 40
-44.15779849543482
 40
-44.15779849543482
 40
-44.15779849543482
 40
-41.3966023543671
 40
-38.64978450157578
 40
-32.87822943471982
 40
-21.59382453005134
 40
-10.5998510122942
 40
-5.271537957085918
 40
-2.763377139235542
 40
0.0
 40
0.0
 40
0.0
 40
0.0
 10
25.20362777791797
 20
1583.231188057943
 30
0.0
 10
25.2437500795595
 20
1582.31170270305
 30
0.0
 10
25.3505443432723
 20
1580.478475398176
 30
0.0
 10
25.69948604460751
 20
1576.734391666033
 30
0.0
 10
26.6140625024691
 20
1570.194012333743
 30
0.0
 10
28.75319259720982
 20
1561.07389435538
 30
0.0
 10
31.96685062383312
 20
1552.430597372299
 30
0.0
 10
34.73587125751965
 20
1546.79299577078
 30
0.0
 10
36.45798848095455
 20
1543.707363461474
 30
0.0
 10
37.37546475081126
 20
1542.208123099382
 30
0.0
 10
37.86016073208703
 20
1541.424996409456
 30
0.0
  0
SPLINE
  5
AE
330
1F
100
AcDbEntity
  8
Table_Miura_9555-01_2D
100
AcDbSpline
210
0.0
220
0.0
230
1.0
 70
     8
 71
     5
 72
    12
 73
     6
 74
     0
 42
0.0000000001
 43
0.0000000001
 40
0.0
 40
0.0
 40
0.0
 40
0.0
 40
0.0
 40
0.0
 40
1.0
 40
1.0
 40
1.0
 40
1.0
 40
1.0
 40
1.0
 10
37.86016073208703
 20
1541.424996409456
 30
0.0
 10
37.86349351657282
 20
1541.419611606232
 30
0.0
 10
37.86682645695782
 20
1541.414226899497
 30
0.0
 10
37.8701361983176
 20
1541.408827854235
 30
0.0
 10
37.87346532773245
 20
1541.403440790512
 30
0.0
 10
37.87679456578736
 20
1541.39805379393
 30
0.0
  0
SPLINE
  5
AF
330
1F
100
AcDbEntity
  8
Table_Miura_9555-01_2D
100
AcDbSpline
210
0.0
220
0.0
230
1.0
 70
     8
 71
     3
 72
    18
 73
    14
 74
     0
 42
0.0000000001
 43
0.0000000001
 40
-23.95196467547641
 40
-23.95196467547641
 40
-23.95196467547641
 40
-23.95196467547641
 40
-22.53576743944416
 40
-21.30318735092228
 40
-18.5887311986106
 40
-13.15870189535763
 40
-11.37665901709092
 40
-8.473068222320627
 40
-6.616257952753485
 40
-5.359452356478953
 40
-3.216127340650388
 40
-1.224399517688125
 40
0.0
 40
0.0
 40
0.0
 40
0.0
 10
37.87679456578736
 20
1541.39805379393
 30
0.0
 10
38.12496579953131
 20
1540.996491164346
 30
0.0
 10
38.59050409253177
 20
1540.246239415102
 30
0.0
 10
39.55702313425263
 20
1538.742227872921
 30
0.0
 10
41.30070832727961
 20
1536.147760734002
 30
0.0
 10
43.25606776445328
 20
1533.477022745559
 30
0.0
 10
45.34267216308217
 20
1530.82814511909
 30
0.0
 10
46.73351303301934
 20
1529.148117751417
 30
0.0
 10
48.03859621111133
 20
1527.625072411727
 30
0.0
 10
49.18902046996118
 20
1526.303245848608
 30
0.0
 10
50.36979752207662
 20
1524.948282690574
 30
0.0
 10
51.5379875071576
 20
1523.596639299599
 30
0.0
 10
52.23932660330411
 20
1522.785854125006
 30
0.0
 10
52.50622624594416
 20
1522.47708183833
 30
0.0
  0
SPLINE
  5
B0
330
1F
100
AcDbEntity
  8
Table_Miura_9555-01_2D
100
AcDbSpline
210
0.0
220
0.0
230
1.0
 70
     8
 71
     5
 72
    12
 73
     6
 74
     0
 42
0.0000000001
 43
0.0000000001
 40
0.0
 40
0.0
 40
0.0
 40
0.0
 40
0.0
 40
0.0
 40
1.0
 40
1.0
 40
1.0
 40
1.0
 40
1.0
 40
1.0
 10
52.50622624594416
 20
1522.47708183833
 30
0.0
 10
52.51454671830924
 20
1522.46745600574
 30
0.0
 10
52.52286710162934
 20
1522.457830096181
 30
0.0
 10
52.53121474651198
 20
1522.44822777345
 30
0.0
 10
52.53954420957597
 20
1522.438609719671
 30
0.0
 10
52.54787367263998
 20
1522.428991665893
 30
0.0
  0
LINE
  5
B1
330
1F
100
AcDbEntity
  8
Table_Miura_9555-01_2D
100
AcDbLine
 10
52.54787367263998
 20
1522.428991665893
 30
0.0
 11
394.8947391518048
 21
1127.120219827668
 31
0.0
  0
LINE
  5
B2
330
1F
100
AcDbEntity
  8
Table_Miura_9555-01_2D
100
AcDbLine
 10
394.8947391518048
 20
1127.120219827668
 30
0.0
 11
350.2266926853362
 21
1127.12080443325
 31
0.0
  0
SPLINE
  5
B3
330
1F
100
AcDbEntity
  8
Table_Miura_9555-01_2D
100
AcDbSpline
210
0.0
220
0.0
230
1.0
 70
     8
 71
     3
 72
    13
 73
     9
 74
     0
 42
0.0000000001
 43
0.0000000001
 40
0.0
 40
0.0
 40
0.0
 40
0.0
 40
0.0842084935809858
 40
0.1523207872208179
 40
0.275918593398183
 40
0.3976132335562294
 40
0.4611173083935368
 40
0.5436834943217633
 40
0.5436834943217633
 40
0.5436834943217633
 40
0.5436834943217633
 10
350.7233391720974
 20
1127.121167025311
 30
0.0
 10
350.6953678229538
 20
1127.121135125248
 30
0.0
 10
350.64420439698
 20
1127.117804400977
 30
0.0
 10
350.5555734296985
 20
1127.092629357255
 30
0.0
 10
350.4735202131441
 20
1127.017054854614
 30
0.0
 10
350.4655785310233
 20
1126.907084601477
 30
0.0
 10
350.5050139831818
 20
1126.825942374066
 30
0.0
 10
350.5361647241425
 20
1126.788331230269
 30
0.0
 10
350.5544169057338
 20
1126.767694637916
 30
0.0
  0
SPLINE
  5
B4
330
1F
100
AcDbEntity
  8
Table_Miura_9555-01_2D
100
AcDbSpline
210
0.0
220
0.0
230
1.0
 70
    24
 71
     2
 72
     6
 73
     3
 74
     0
 42
0.0000000001
 43
0.0000000001
 40
0.0
 40
0.0
 40
0.0
 40
0.5244136134753632
 40
0.5244136134753632
 40
0.5244136134753632
 10
350.5544169057338
 20
1126.767694637916
 30
0.0
 10
350.7261883400752
 20
1126.569350164064
 30
0.0
 10
350.8979597744164
 20
1126.371005690213
 30
0.0
  0
SPLINE
  5
B5
330
1F
100
AcDbEntity
  8
Table_Miura_9555-01_2D
100
AcDbSpline
210
0.0
220
0.0
230
1.0
 70
     8
 71
     3
 72
    12
 73
     8
 74
     0
 42
0.0000000001
 43
0.0000000001
 40
0.0
 40
0.0
 40
0.0
 40
0.0
 40
0.215147148445352
 40
0.4344126759933203
 40
1.014845999299492
 40
1.738325432821743
 40
2.240259627195611
 40
2.240259627195611
 40
2.240259627195611
 40
2.240259627195611
 10
350.8979597744164
 20
1126.371005690213
 30
0.0
 10
350.9450106320045
 20
1126.316444222042
 30
0.0
 10
351.0408274757746
 20
1126.207815418022
 30
0.0
 10
351.2771595647809
 20
1125.965656143396
 30
0.0
 10
351.6491651225323
 20
1125.619905920282
 30
0.0
 10
352.1029667093653
 20
1125.224400643369
 30
0.0
 10
352.4211786908954
 20
1124.967999117327
 30
0.0
 10
352.5579811374973
 20
1124.871121713237
 30
0.0
  0
SPLINE
  5
B6
330
1F
100
AcDbEntity
  8
Table_Miura_9555-01_2D
100
AcDbSpline
210
0.0
220
0.0
230
1.0
 70
     8
 71
     3
 72
    11
 73
     7
 74
     0
 42
0.0000000001
 43
0.0000000001
 40
0.0
 40
0.0
 40
0.0
 40
0.0
 40
2.849025153143938
 40
5.681848556468799
 40
11.31563454753918
 40
22.64754464670963
 40
22.64754464670963
 40
22.64754464670963
 40
22.64754464670963
 10
352.5579811374973
 20
1124.871121713237
 30
0.0
 10
353.3303093764217
 20
1124.318214684779
 30
0.0
 10
354.9129293663709
 20
1123.274903537268
 30
0.0
 10
358.2146573658037
 20
1121.446049119779
 30
0.0
 10
364.336298922306
 20
1118.926925592135
 30
0.0
 10
369.9902977922629
 20
1118.033676789724
 30
0.0
 10
373.7677536385572
 20
1118.034012036802
 30
0.0
  0
SPLINE
  5
B7
330
1F
100
AcDbEntity
  8
Table_Miura_9555-01_2D
100
AcDbSpline
210
0.0
220
0.0
230
1.0
 70
     8
 71
     5
 72
    12
 73
     6
 74
     0
 42
0.0000000001
 43
0.0000000001
 40
-1.0
 40
-1.0
 40
-1.0
 40
-1.0
 40
-1.0
 40
-1.0
 40
0.0
 40
0.0
 40
0.0
 40
0.0
 40
0.0
 40
0.0
 10
373.7677536385572
 20
1118.034012036802
 30
0.0
 10
373.8366850921875
 20
1118.03401815443
 30
0.0
 10
373.9056165311158
 20
1118.034189926318
 30
0.0
 10
373.9745487094987
 20
1118.034518870848
 30
0.0
 10
374.0434786125488
 20
1118.035010163648
 30
0.0
 10
374.1124069323677
 20
1118.035667479357
 30
0.0
  0
SPLINE
  5
B8
330
1F
100
AcDbEntity
  8
Table_Miura_9555-01_2D
100
AcDbSpline
210
0.0
220
0.0
230
1.0
 70
     8
 71
     3
 72
    12
 73
     8
 74
     0
 42
0.0000000001
 43
0.0000000001
 40
0.0
 40
0.0
 40
0.0
 40
0.0
 40
2.765242495116511
 40
5.467131183712466
 40
11.12386283924205
 40
16.6939552205985
 40
22.3034199774177
 40
22.3034199774177
 40
22.3034199774177
 40
22.3034199774177
 10
374.1124069323677
 20
1118.035667479357
 30
0.0
 10
375.0341187207013
 20
1118.044457126901
 30
0.0
 10
376.8557024606761
 20
1118.132266624541
 30
0.0
 10
380.5381223379836
 20
1118.587757987515
 30
0.0
 10
385.063651127737
 20
1119.687045688439
 30
0.0
 10
390.2629534809357
 20
1121.842849463543
 30
0.0
 10
393.4573507758886
 20
1123.782926881077
 30
0.0
 10
394.9779144678442
 20
1124.871199796606
 30
0.0
  0
SPLINE
  5
B9
330
1F
100
AcDbEntity
  8
Table_Miura_9555-01_2D
100
AcDbSpline
210
0.0
220
0.0
230
1.0
 70
     8
 71
     3
 72
    16
 73
    12
 74
     0
 42
0.0000000001
 43
0.0000000001
 40
0.0
 40
0.0
 40
0.0
 40
0.0
 40
0.1450445684408275
 40
0.2674563255525638
 40
0.5165020686838146
 40
0.7647651081847263
 40
0.9971024939488223
 40
1.19489142016583
 40
1.37708050099132
 40
1.556352254818321
 40
1.789706299665248
 40
1.789706299665248
 40
1.789706299665248
 40
1.789706299665248
 10
394.9779144678442
 20
1124.871199796606
 30
0.0
 10
395.017359775682
 20
1124.899341436154
 30
0.0
 10
395.0895043109358
 20
1124.951800408348
 30
0.0
 10
395.2201055840952
 20
1125.064247478069
 30
0.0
 10
395.358495543659
 20
1125.218600808131
 30
0.0
 10
395.4883557758648
 20
1125.425360862958
 30
0.0
 10
395.570495219903
 20
1125.637409244318
 30
0.0
 10
395.5974798294747
 20
1125.841494052207
 30
0.0
 10
395.568111028474
 20
1126.027814572943
 30
0.0
 10
395.4795838217241
 20
1126.207362841765
 30
0.0
 10
395.3898322189644
 20
1126.312485164251
 30
0.0
 10
395.3387993631404
 20
1126.371198437634
 30
0.0
  0
SPLINE
  5
BA
330
1F
100
AcDbEntity
  8
Table_Miura_9555-01_2D
100
AcDbSpline
210
0.0
220
0.0
230
1.0
 70
    24
 71
     2
 72
     6
 73
     3
 74
     0
 42
0.0000000001
 43
0.0000000001
 40
0.0
 40
0.0
 40
0.0
 40
0.5244495011189884
 40
0.5244495011189884
 40
0.5244495011189884
 10
395.3387993631404
 20
1126.371198437634
 30
0.0
 10
395.1670429101568
 20
1126.569526456406
 30
0.0
 10
394.9952864571732
 20
1126.767854475179
 30
0.0
  0
SPLINE
  5
BB
330
1F
100
AcDbEntity
  8
Table_Miura_9555-01_2D
100
AcDbSpline
210
0.0
220
0.0
230
1.0
 70
     8
 71
     3
 72
    12
 73
     8
 74
     0
 42
0.0000000001
 43
0.0000000001
 40
0.0
 40
0.0
 40
0.0
 40
0.0
 40
0.0890023797843848
 40
0.1797960093845599
 40
0.411193526615116
 40
0.6556287843923316
 40
0.8529811660911645
 40
0.8529811660911645
 40
0.8529811660911645
 40
0.8529811660911645
 10
394.9952864571732
 20
1126.767854475179
 30
0.0
 10
394.9759744951825
 20
1126.790582279524
 30
0.0
 10
394.93518081833
 20
1126.834710340798
 30
0.0
 10
394.8265041764161
 20
1126.91896285599
 30
0.0
 10
394.6599829958604
 20
1127.009220039412
 30
0.0
 10
394.4504763475069
 20
1127.09102024947
 30
0.0
 10
394.3049573635762
 20
1127.118869103369
 30
0.0
 10
394.2390674801827
 20
1127.120652927815
 30
0.0
  0
SPLINE
  5
BC
330
1F
100
AcDbEntity
  8
Table_Miura_9555-01_2D
100
AcDbSpline
210
0.0
220
0.0
230
1.0
 70
     8
 71
     3
 72
    13
 73
     9
 74
     0
 42
0.0000000001
 43
0.0000000001
 40
0.0
 40
0.0
 40
0.0
 40
0.0
 40
0.0902185093720015
 40
0.1761896831588625
 40
0.3455633168783852
 40
0.4948657949572023
 40
0.5565632593727951
 40
0.6273566248615841
 40
0.6273566248615841
 40
0.6273566248615841
 40
0.6273566248615841
 10
24.55885381686953
 20
1127.120541878714
 30
0.0
 10
24.58893150645331
 20
1127.119485135052
 30
0.0
 10
24.64749837356162
 20
1127.114321625706
 30
0.0
 10
24.75960680516623
 20
1127.085403785815
 30
0.0
 10
24.87975929685221
 20
1127.021172828144
 30
0.0
 10
24.96742215826912
 20
1126.925690185043
 30
0.0
 10
24.99927343375661
 20
1126.835760344966
 30
0.0
 10
25.00003015807583
 20
1126.791270057593
 30
0.0
 10
25.00001907960272
 20
1126.767708219407
 30
0.0
  0
SPLINE
  5
BD
330
1F
100
AcDbEntity
  8
Table_Miura_9555-01_2D
100
AcDbSpline
210
0.0
220
0.0
230
1.0
 70
    24
 71
     2
 72
     6
 73
     3
 74
     0
 42
0.0000000001
 43
0.0000000001
 40
0.0
 40
0.0
 40
0.0
 40
0.3964465280207605
 40
0.3964465280207605
 40
0.3964465280207605
 10
25.00001907960272
 20
1126.767708219407
 30
0.0
 10
25.00000569650369
 20
1126.569484955485
 30
0.0
 10
24.99999231340466
 20
1126.371261691563
 30
0.0
  0
SPLINE
  5
BE
330
1F
100
AcDbEntity
  8
Table_Miura_9555-01_2D
100
AcDbSpline
210
0.0
220
0.0
230
1.0
 70
     8
 71
     3
 72
    17
 73
    13
 74
     0
 42
0.0000000001
 43
0.0000000001
 40
0.0
 40
0.0
 40
0.0
 40
0.0
 40
0.096206427153708
 40
0.1738289297860724
 40
0.3373064891875309
 40
0.5367070411388807
 40
0.7755987407383814
 40
1.076140845210541
 40
1.396849041230189
 40
1.692620935227463
 40
1.82340452322402
 40
1.966221085738925
 40
1.966221085738925
 40
1.966221085738925
 40
1.966221085738925
 10
24.99999231340466
 20
1126.371261691563
 30
0.0
 10
25.00007599933274
 20
1126.339179066415
 30
0.0
 10
24.99963648657017
 20
1126.281243381045
 30
0.0
 10
24.98693521240243
 20
1126.169236610369
 30
0.0
 10
24.94391938789981
 20
1126.027979906331
 30
0.0
 10
24.85004070244217
 20
1125.849994573099
 30
0.0
 10
24.70778194457402
 20
1125.648571698091
 30
0.0
 10
24.51994455287517
 20
1125.43154097249
 30
0.0
 10
24.30192289182564
 20
1125.21701342796
 30
0.0
 10
24.11124786000624
 20
1125.056372515878
 30
0.0
 10
23.95722399971423
 20
1124.945327248266
 30
0.0
 10
23.88020793376749
 20
1124.896427215064
 30
0.0
 10
23.83975727332567
 20
1124.871232123678
 30
0.0
  0
SPLINE
  5
BF
330
1F
100
AcDbEntity
  8
Table_Miura_9555-01_2D
100
AcDbSpline
210
0.0
220
0.0
230
1.0
 70
    24
 71
     2
 72
     6
 73
     3
 74
     0
 42
0.0000000001
 43
0.0000000001
 40
0.0
 40
0.0
 40
0.0
 40
0.0002289742124082
 40
0.0002289742124082
 40
0.0002289742124082
 10
23.83975727332567
 20
1124.871232123678
 30
0.0
 10
23.83939661441222
 20
1124.87100594208
 30
0.0
 10
23.83903595549877
 20
1124.870779760483
 30
0.0
  0
SPLINE
  5
C0
330
1F
100
AcDbEntity
  8
Table_Miura_9555-01_2D
100
AcDbSpline
210
0.0
220
0.0
230
1.0
 70
     8
 71
     3
 72
    25
 73
    21
 74
     0
 42
0.0000000001
 43
0.0000000001
 40
0.0
 40
0.0
 40
0.0
 40
0.0
 40
3.199464847565258
 40
6.339105644558495
 40
12.50811986083845
 40
18.76914410145589
 40
21.92709824290087
 40
23.5426726790446
 40
24.35047809908063
 40
24.73600031715062
 40
24.93791509714551
 40
25.02970318784148
 40
25.08478241549296
 40
25.10542804074602
 40
25.11450266261522
 40
25.12044633183926
 40
25.1237624889977
 40
25.12411320300106
 40
25.12426471033862
 40
25.12576885809665
 40
25.12576885809665
 40
25.12576885809665
 40
25.12576885809665
 10
23.83903595549877
 20
1124.870779760483
 30
0.0
 10
22.93409061299103
 20
1124.305381318114
 30
0.0
 10
21.10216963154657
 20
1123.249714157309
 30
0.0
 10
17.35060767958662
 20
1121.424782211867
 30
0.0
 10
12.46235462658392
 20
1119.645293552373
 30
0.0
 10
7.369079324375932
 20
1118.555444718941
 30
0.0
 10
3.709330417430507
 20
1118.16595459719
 30
0.0
 10
1.851280898302363
 20
1118.066586122816
 30
0.0
 10
0.9152639214017172
 20
1118.042029426784
 30
0.0
 10
0.4502290392420462
 20
1118.03593520844
 30
0.0
 10
0.2238244808968801
 20
1118.034495027238
 30
0.0
 10
0.1075669070442444
 20
1118.034117917932
 30
0.0
 10
0.0517292836730547
 20
1118.034037641064
 30
0.0
 10
0.0234633573991658
 20
1118.03401688852
 30
0.0
 10
0.0115754177405022
 20
1118.034013478454
 30
0.0
 10
0.0055053786809793
 20
1118.034012221638
 30
0.0
 10
0.0021275729605321
 20
1118.034012162296
 30
0.0
 10
0.0015005478117444
 20
1118.034012002251
 30
0.0
 10
0.0014900110636943
 20
1118.034012086847
 30
0.0
 10
0.0007269131547644
 20
1118.034012067471
 30
0.0
 10
0.0002385766784271
 20
1118.034012069941
 30
0.0
  0
SPLINE
  5
C1
330
1F
100
AcDbEntity
  8
Table_Miura_9555-01_2D
100
AcDbSpline
210
0.0
220
0.0
230
1.0
 70
     8
 71
     3
 72
    24
 73
    20
 74
     0
 42
0.0000000001
 43
0.0000000001
 40
0.0
 40
0.0
 40
0.0
 40
0.0
 40
0.0020036009973828
 40
0.0022547111946161
 40
0.0025058213907338
 40
0.0056257993892326
 40
0.0112405324588038
 40
0.0196887687594485
 40
0.0391810618505631
 40
0.0782064054519545
 40
0.1883614775428985
 40
0.3719392572588333
 40
0.7758219388728827
 40
1.546888493387027
 40
3.125770128814666
 40
6.302017912357492
 40
12.52633999402473
 40
18.76876323823666
 40
25.12637023077661
 40
25.12637023077661
 40
25.12637023077661
 40
25.12637023077661
 10
0.0002385766784271
 20
1118.034012069941
 30
0.0
 10
-0.0004313882618164
 20
1118.034012067529
 30
0.0
 10
-0.0013814655403195
 20
1118.03401209537
 30
0.0
 10
-0.0015540261446887
 20
1118.034012004748
 30
0.0
 10
-0.0017514286400485
 20
1118.034012128791
 30
0.0
 10
-0.0056047590932878
 20
1118.034012294359
 30
0.0
 10
-0.0107352989270595
 20
1118.034013131461
 30
0.0
 10
-0.0223819561778811
 20
1118.034016857533
 30
0.0
 10
-0.0441539371731353
 20
1118.034030798565
 30
0.0
 10
-0.1008786728361458
 20
1118.034103271888
 30
0.0
 10
-0.2114962550239881
 20
1118.034430983564
 30
0.0
 10
-0.4441854836895375
 20
1118.035882323358
 30
0.0
 10
-0.8969076456559861
 20
1118.041682479332
 30
0.0
 10
-1.814613149635946
 20
1118.065474312343
 30
0.0
 10
-3.654403157882327
 20
1118.1614854904
 30
0.0
 10
-7.296441314317191
 20
1118.544008962097
 30
0.0
 10
-12.40936913035689
 20
1119.629111349849
 30
0.0
 10
-18.32235610084076
 20
1121.77367220062
 30
0.0
 10
-22.04132580201527
 20
1123.747850838459
 30
0.0
 10
-23.83922918809454
 20
1124.87090251753
 30
0.0
  0
SPLINE
  5
C2
330
1F
100
AcDbEntity
  8
Table_Miura_9555-01_2D
100
AcDbSpline
210
0.0
220
0.0
230
1.0
 70
     8
 71
     3
 72
    17
 73
    13
 74
     0
 42
0.0000000001
 43
0.0000000001
 40
0.0
 40
0.0
 40
0.0
 40
0.0
 40
0.1433371388019954
 40
0.2741217048581911
 40
0.5698915548391688
 40
0.8911637673394633
 40
1.191151497005835
 40
1.428512647803871
 40
1.628463248151063
 40
1.792814010234679
 40
1.870845827559429
 40
1.966221106772801
 40
1.966221106772801
 40
1.966221106772801
 40
1.966221106772801
 10
-23.83922918809454
 20
1124.87090251753
 30
0.0
 10
-23.88035561909506
 20
1124.896517152715
 30
0.0
 10
-23.95751269938951
 20
1124.945520487169
 30
0.0
 10
-24.11165639704537
 20
1125.056694677097
 30
0.0
 10
-24.30244871973532
 20
1125.217488276859
 30
0.0
 10
-24.52043363332901
 20
1125.432056558125
 30
0.0
 10
-24.70789076932574
 20
1125.648748493563
 30
0.0
 10
-24.84985039086764
 20
1125.849746434244
 30
0.0
 10
-24.94381514257745
 20
1126.027650121646
 30
0.0
 10
-24.98705086623154
 20
1126.169482528911
 30
0.0
 10
-24.99963398884297
 20
1126.28166764363
 30
0.0
 10
-25.00009268066056
 20
1126.339444822629
 30
0.0
 10
-24.99999168985501
 20
1126.371261691563
 30
0.0
  0
SPLINE
  5
C3
330
1F
100
AcDbEntity
  8
Table_Miura_9555-01_2D
100
AcDbSpline
210
0.0
220
0.0
230
1.0
 70
    24
 71
     2
 72
     6
 73
     3
 74
     0
 42
0.0000000001
 43
0.0000000001
 40
0.0
 40
0.0
 40
0.0
 40
0.3964465280207605
 40
0.3964465280207605
 40
0.3964465280207605
 10
-24.99999168985501
 20
1126.371261691563
 30
0.0
 10
-25.00000507295404
 20
1126.569484955485
 30
0.0
 10
-25.00001845605307
 20
1126.767708219407
 30
0.0
  0
SPLINE
  5
C4
330
1F
100
AcDbEntity
  8
Table_Miura_9555-01_2D
100
AcDbSpline
210
0.0
220
0.0
230
1.0
 70
     8
 71
     3
 72
    12
 73
     8
 74
     0
 42
0.0000000001
 43
0.0000000001
 40
0.0
 40
0.0
 40
0.0
 40
0.0
 40
0.0709674213477591
 40
0.1335862693837825
 40
0.2813937667596485
 40
0.4525062216997118
 40
0.627356896276153
 40
0.627356896276153
 40
0.627356896276153
 40
0.627356896276153
 10
-25.00001845605307
 20
1126.767708219407
 30
0.0
 10
-25.00012779214463
 20
1126.791327014334
 30
0.0
 10
-24.99914452395747
 20
1126.836182844364
 30
0.0
 10
-24.96723534956523
 20
1126.925962714527
 30
0.0
 10
-24.87928072717564
 20
1127.021414857872
 30
0.0
 10
-24.73241757828596
 20
1127.100123088924
 30
0.0
 10
-24.61702595617403
 20
1127.119055312771
 30
0.0
 10
-24.55885293653041
 20
1127.120535932118
 30
0.0
  0
SPLINE
  5
C5
330
1F
100
AcDbEntity
  8
Table_Miura_9555-01_2D
100
AcDbSpline
210
0.0
220
0.0
230
1.0
 70
     8
 71
     3
 72
    13
 73
     9
 74
     0
 42
0.0000000001
 43
0.0000000001
 40
0.0
 40
0.0
 40
0.0
 40
0.0
 40
0.0842084935809858
 40
0.1523207872208179
 40
0.275918593398183
 40
0.3976132335562294
 40
0.4611173083935368
 40
0.5436834943217633
 40
0.5436834943217633
 40
0.5436834943217633
 40
0.5436834943217633
 10
-350.7235511862353
 20
1127.121167025311
 30
0.0
 10
-350.6955798370916
 20
1127.121135125248
 30
0.0
 10
-350.644416411118
 20
1127.117804400977
 30
0.0
 10
-350.5557854438365
 20
1127.092629357255
 30
0.0
 10
-350.4737322272821
 20
1127.017054854614
 30
0.0
 10
-350.4657905451612
 20
1126.907084601477
 30
0.0
 10
-350.5052259973198
 20
1126.825942374066
 30
0.0
 10
-350.5363767382804
 20
1126.788331230269
 30
0.0
 10
-350.5546289198719
 20
1126.767694637916
 30
0.0
  0
SPLINE
  5
C6
330
1F
100
AcDbEntity
  8
Table_Miura_9555-01_2D
100
AcDbSpline
210
0.0
220
0.0
230
1.0
 70
    24
 71
     2
 72
     6
 73
     3
 74
     0
 42
0.0000000001
 43
0.0000000001
 40
0.0
 40
0.0
 40
0.0
 40
0.5244136134753632
 40
0.5244136134753632
 40
0.5244136134753632
 10
-350.5546289198719
 20
1126.767694637916
 30
0.0
 10
-350.7264003542131
 20
1126.569350164064
 30
0.0
 10
-350.8981717885544
 20
1126.371005690213
 30
0.0
  0
SPLINE
  5
C7
330
1F
100
AcDbEntity
  8
Table_Miura_9555-01_2D
100
AcDbSpline
210
0.0
220
0.0
230
1.0
 70
     8
 71
     3
 72
    12
 73
     8
 74
     0
 42
0.0000000001
 43
0.0000000001
 40
0.0
 40
0.0
 40
0.0
 40
0.0
 40
0.215147148445352
 40
0.4344126759933203
 40
1.014845999299492
 40
1.738325432821743
 40
2.240259627195611
 40
2.240259627195611
 40
2.240259627195611
 40
2.240259627195611
 10
-350.8981717885544
 20
1126.371005690213
 30
0.0
 10
-350.9452226461425
 20
1126.316444222042
 30
0.0
 10
-351.0410394899126
 20
1126.207815418022
 30
0.0
 10
-351.2773715789188
 20
1125.965656143396
 30
0.0
 10
-351.6493771366703
 20
1125.619905920282
 30
0.0
 10
-352.1031787235032
 20
1125.224400643369
 30
0.0
 10
-352.4213907050333
 20
1124.967999117327
 30
0.0
 10
-352.5581931516352
 20
1124.871121713237
 30
0.0
  0
SPLINE
  5
C8
330
1F
100
AcDbEntity
  8
Table_Miura_9555-01_2D
100
AcDbSpline
210
0.0
220
0.0
230
1.0
 70
     8
 71
     3
 72
    11
 73
     7
 74
     0
 42
0.0000000001
 43
0.0000000001
 40
0.0
 40
0.0
 40
0.0
 40
0.0
 40
2.849025153143938
 40
5.681848556468799
 40
11.31563454753918
 40
22.64754464670963
 40
22.64754464670963
 40
22.64754464670963
 40
22.64754464670963
 10
-352.5581931516352
 20
1124.871121713237
 30
0.0
 10
-353.3305213905594
 20
1124.318214684779
 30
0.0
 10
-354.9131413805088
 20
1123.274903537268
 30
0.0
 10
-358.2148693799417
 20
1121.446049119779
 30
0.0
 10
-364.3365109364439
 20
1118.926925592135
 30
0.0
 10
-369.9905098064008
 20
1118.033676789724
 30
0.0
 10
-373.7679656526952
 20
1118.034012036802
 30
0.0
  0
SPLINE
  5
C9
330
1F
100
AcDbEntity
  8
Table_Miura_9555-01_2D
100
AcDbSpline
210
0.0
220
0.0
230
1.0
 70
     8
 71
     5
 72
    12
 73
     6
 74
     0
 42
0.0000000001
 43
0.0000000001
 40
-1.0
 40
-1.0
 40
-1.0
 40
-1.0
 40
-1.0
 40
-1.0
 40
0.0
 40
0.0
 40
0.0
 40
0.0
 40
0.0
 40
0.0
 10
-373.7679656526952
 20
1118.034012036802
 30
0.0
 10
-373.8368971063254
 20
1118.03401815443
 30
0.0
 10
-373.9058285452537
 20
1118.034189926318
 30
0.0
 10
-373.9747607236367
 20
1118.034518870848
 30
0.0
 10
-374.0436906266867
 20
1118.035010163648
 30
0.0
 10
-374.1126189465057
 20
1118.035667479357
 30
0.0
  0
SPLINE
  5
CA
330
1F
100
AcDbEntity
  8
Table_Miura_9555-01_2D
100
AcDbSpline
210
0.0
220
0.0
230
1.0
 70
     8
 71
     3
 72
    12
 73
     8
 74
     0
 42
0.0000000001
 43
0.0000000001
 40
0.0
 40
0.0
 40
0.0
 40
0.0
 40
2.765242495116511
 40
5.467131183712466
 40
11.12386283924205
 40
16.6939552205985
 40
22.3034199774177
 40
22.3034199774177
 40
22.3034199774177
 40
22.3034199774177
 10
-374.1126189465057
 20
1118.035667479357
 30
0.0
 10
-375.0343307348393
 20
1118.044457126901
 30
0.0
 10
-376.8559144748142
 20
1118.132266624541
 30
0.0
 10
-380.5383343521215
 20
1118.587757987515
 30
0.0
 10
-385.063863141875
 20
1119.687045688439
 30
0.0
 10
-390.2631654950736
 20
1121.842849463543
 30
0.0
 10
-393.4575627900266
 20
1123.782926881077
 30
0.0
 10
-394.978126481982
 20
1124.871199796606
 30
0.0
  0
SPLINE
  5
CB
330
1F
100
AcDbEntity
  8
Table_Miura_9555-01_2D
100
AcDbSpline
210
0.0
220
0.0
230
1.0
 70
     8
 71
     3
 72
    16
 73
    12
 74
     0
 42
0.0000000001
 43
0.0000000001
 40
0.0
 40
0.0
 40
0.0
 40
0.0
 40
0.1450445684408275
 40
0.2674563255525638
 40
0.5165020686838146
 40
0.7647651081847263
 40
0.9971024939488223
 40
1.19489142016583
 40
1.37708050099132
 40
1.556352254818321
 40
1.789706299665248
 40
1.789706299665248
 40
1.789706299665248
 40
1.789706299665248
 10
-394.978126481982
 20
1124.871199796606
 30
0.0
 10
-395.01757178982
 20
1124.899341436154
 30
0.0
 10
-395.0897163250737
 20
1124.951800408348
 30
0.0
 10
-395.220317598233
 20
1125.064247478069
 30
0.0
 10
-395.3587075577969
 20
1125.218600808131
 30
0.0
 10
-395.4885677900028
 20
1125.425360862958
 30
0.0
 10
-395.5707072340409
 20
1125.637409244318
 30
0.0
 10
-395.5976918436126
 20
1125.841494052207
 30
0.0
 10
-395.568323042612
 20
1126.027814572943
 30
0.0
 10
-395.4797958358621
 20
1126.207362841765
 30
0.0
 10
-395.3900442331022
 20
1126.312485164251
 30
0.0
 10
-395.3390113772783
 20
1126.371198437634
 30
0.0
  0
SPLINE
  5
CC
330
1F
100
AcDbEntity
  8
Table_Miura_9555-01_2D
100
AcDbSpline
210
0.0
220
0.0
230
1.0
 70
    24
 71
     2
 72
     6
 73
     3
 74
     0
 42
0.0000000001
 43
0.0000000001
 40
0.0
 40
0.0
 40
0.0
 40
0.5244495011189884
 40
0.5244495011189884
 40
0.5244495011189884
 10
-395.3390113772783
 20
1126.371198437634
 30
0.0
 10
-395.1672549242948
 20
1126.569526456406
 30
0.0
 10
-394.9954984713112
 20
1126.767854475179
 30
0.0
  0
SPLINE
  5
CD
330
1F
100
AcDbEntity
  8
Table_Miura_9555-01_2D
100
AcDbSpline
210
0.0
220
0.0
230
1.0
 70
     8
 71
     3
 72
    12
 73
     8
 74
     0
 42
0.0000000001
 43
0.0000000001
 40
0.0
 40
0.0
 40
0.0
 40
0.0
 40
0.0890023797843848
 40
0.1797960093845599
 40
0.411193526615116
 40
0.6556287843923316
 40
0.8529811660911645
 40
0.8529811660911645
 40
0.8529811660911645
 40
0.8529811660911645
 10
-394.9954984713112
 20
1126.767854475179
 30
0.0
 10
-394.9761865093204
 20
1126.790582279524
 30
0.0
 10
-394.9353928324681
 20
1126.834710340798
 30
0.0
 10
-394.8267161905541
 20
1126.91896285599
 30
0.0
 10
-394.6601950099983
 20
1127.009220039412
 30
0.0
 10
-394.4506883616449
 20
1127.09102024947
 30
0.0
 10
-394.3051693777142
 20
1127.118869103369
 30
0.0
 10
-394.2392794943206
 20
1127.120652927815
 30
0.0
  0
SPLINE
  5
CE
330
1F
100
AcDbEntity
  8
Table_Miura_9555-01_2D
100
AcDbSpline
210
0.0
220
0.0
230
1.0
 70
    12
 71
     2
 72
     6
 73
     3
 74
     0
 42
0.0000000001
 43
0.0000000001
 40
0.0
 40
0.0
 40
0.0
 40
1.53375001570948
 40
1.53375001570948
 40
1.53375001570948
 10
0.9629671210223024
 20
1583.655806464905
 30
0.0
 41
1.0
 10
0.0000404772078434
 20
1583.620061386574
 30
0.0
 41
0.7201171409990421
 10
0.0000003117747838
 20
1582.656471520304
 30
0.0
 41
1.0
  0
SPLINE
  5
CF
330
1F
100
AcDbEntity
  8
Table_Miura_9555-01_2D
100
AcDbSpline
210
0.0
220
0.0
230
1.0
 70
    12
 71
     2
 72
     6
 73
     3
 74
     0
 42
0.0000000001
 43
0.0000000001
 40
0.0
 40
0.0
 40
0.0
 40
1.533750190017919
 40
1.533750190017919
 40
1.533750190017919
 10
0.0000003117747838
 20
1582.656471520304
 30
0.0
 41
1.0
 10
-0.0000398534440044
 20
1583.62006155487
 30
0.0
 41
0.7201170802944139
 10
-0.9629666716837164
 20
1583.655806471174
 30
0.0
 41
1.0
  0
SPLINE
  5
D0
330
1F
100
AcDbEntity
  8
Table_Miura_9555-01_2D
100
AcDbSpline
210
0.0
220
0.0
230
1.0
 70
    12
 71
     2
 72
     6
 73
     3
 74
     0
 42
0.0000000001
 43
0.0000000001
 40
0.0
 40
0.0
 40
0.0
 40
0.5308753252867442
 40
0.5308753252867442
 40
0.5308753252867442
 10
-7.886179102791174
 20
1517.45436480087
 30
0.0
 41
1.0
 10
-7.653744063973142
 20
1517.326177537371
 30
0.0
 41
0.9999907493369194
 10
-7.422420361133845
 20
1517.19599548677
 30
0.0
 41
1.0
  0
SPLINE
  5
D1
330
1F
100
AcDbEntity
  8
Table_Miura_9555-01_2D
100
AcDbSpline
210
0.0
220
0.0
230
1.0
 70
     8
 71
     3
 72
    13
 73
     9
 74
     0
 42
0.0000000001
 43
0.0000000001
 40
0.0
 40
0.0
 40
0.0
 40
0.0
 40
1.019225064702818
 40
2.012580360965313
 40
3.947692328443181
 40
4.933986289060289
 40
5.854459583978036
 40
7.777214577454429
 40
7.777214577454429
 40
7.777214577454429
 40
7.777214577454429
 10
-7.422420361133845
 20
1517.19599548677
 30
0.0
 10
-7.126279030012482
 20
1517.029531519217
 30
0.0
 10
-6.531881317252555
 20
1516.717722765591
 30
0.0
 10
-5.331226851916653
 20
1516.177924431995
 30
0.0
 10
-4.094687745448936
 20
1515.752973252206
 30
0.0
 10
-2.847898928927861
 20
1515.457213584703
 30
0.0
 10
-1.588632730843528
 20
1515.24430536723
 30
0.0
 10
-0.640902230800748
 20
1515.179841763505
 30
0.0
 10
0.0000003117747838
 20
1515.179305818271
 30
0.0
  0
SPLINE
  5
D2
330
1F
100
AcDbEntity
  8
Table_Miura_9555-01_2D
100
AcDbSpline
210
0.0
220
0.0
230
1.0
 70
     8
 71
     3
 72
    13
 73
     9
 74
     0
 42
0.0000000001
 43
0.0000000001
 40
0.0
 40
0.0
 40
0.0
 40
0.0
 40
0.9782337425002417
 40
1.92275499347662
 40
2.84322828839396
 40
3.829522249011025
 40
5.764634216489107
 40
7.777214577453912
 40
7.777214577453912
 40
7.777214577453912
 40
7.777214577453912
 10
0.0000003117747838
 20
1515.179305818271
 30
0.0
 10
0.3260856012229851
 20
1515.17945867474
 30
0.0
 10
0.9669617714935155
 20
1515.202139253419
 30
0.0
 10
1.910313667173795
 20
1515.29863368053
 30
0.0
 10
2.847898933217038
 20
1515.457230628668
 30
0.0
 10
4.094684466070248
 20
1515.752978564233
 30
0.0
 10
5.653178666751045
 20
1516.288523170693
 30
0.0
 10
6.837687144806295
 20
1516.86717074424
 30
0.0
 10
7.422420984683867
 20
1517.19599548677
 30
0.0
  0
SPLINE
  5
D3
330
1F
100
AcDbEntity
  8
Table_Miura_9555-01_2D
100
AcDbSpline
210
0.0
220
0.0
230
1.0
 70
    12
 71
     2
 72
     6
 73
     3
 74
     0
 42
0.0000000001
 43
0.0000000001
 40
0.0
 40
0.0
 40
0.0
 40
0.530875325286944
 40
0.530875325286944
 40
0.530875325286944
 10
7.422420984683867
 20
1517.19599548677
 30
0.0
 41
1.0
 10
7.65374468752284
 20
1517.326177537371
 30
0.0
 41
0.9999907493369285
 10
7.886179726341652
 20
1517.45436480087
 30
0.0
 41
1.0
  0
LINE
  5
D4
330
1F
100
AcDbEntity
  8
Table_Miura_9555-01_2D
100
AcDbLine
 10
25.13000147152798
 20
1502.510573406096
 30
0.0
 11
25.130001471528
 21
1127.121261687408
 31
0.0
  0
LINE
  5
D5
330
1F
100
AcDbEntity
  8
Table_Miura_9555-01_2D
100
AcDbLine
 10
25.130001471528
 20
1127.121261687408
 30
0.0
 11
-25.13000084797839
 21
1127.121261687408
 31
0.0
  0
LINE
  5
D6
330
1F
100
AcDbEntity
  8
Table_Miura_9555-01_2D
100
AcDbLine
 10
-25.13000084797839
 20
1127.121261687408
 30
0.0
 11
-25.13000084797841
 21
1502.510573406095
 31
0.0
  0
SPLINE
  5
D7
330
1F
100
AcDbEntity
  8
Table_Miura_9555-01_2D
100
AcDbSpline
210
0.0
220
0.0
230
1.0
 70
    12
 71
     2
 72
     6
 73
     3
 74
     0
 42
0.0000000001
 43
0.0000000001
 40
0.0
 40
0.0
 40
0.0
 40
0.0456162757198297
 40
0.0456162757198297
 40
0.0456162757198297
 10
-0.775321464825538
 20
1519.131741737989
 30
0.0
 41
1.0
 10
-0.7975501022608431
 20
1519.126615362655
 30
0.0
 41
0.9997392900035
 10
-0.819989603205613
 20
1519.122509166897
 30
0.0
 41
1.0
  0
POLYLINE
  5
D8
330
1F
100
AcDbEntity
  8
Table_Miura_9555-01_2D
100
AcDb2dPolyline
 66
     1
 10
0.0
 20
0.0
 30
0.0
  0
VERTEX
  5
D9
330
D8
100
AcDbEntity
  8
Table_Miura_9555-01_2D
100
AcDbVertex
100
AcDb2dVertex
 10
0.0000003117747838
 20
1582.656471520304
 30
0.0
  0
VERTEX
  5
DA
330
D8
100
AcDbEntity
  8
Table_Miura_9555-01_2D
100
AcDbVertex
100
AcDb2dVertex
 10
-0.000425033045758
 20
1520.106192357707
 30
0.0
  0
SEQEND
  5
DB
330
D8
100
AcDbEntity
  8
Table_Miura_9555-01_2D
  0
SPLINE
  5
DC
330
1F
100
AcDbEntity
  8
Table_Miura_9555-01_2D
100
AcDbSpline
210
0.0
220
0.0
230
1.0
 70
    15
 71
     2
 72
    12
 73
     9
 74
     0
 42
0.0000000001
 43
0.0000000001
 40
0.0
 40
0.0
 40
0.0
 40
785.3981633974481
 40
785.3981633974481
 40
1570.796326794896
 40
1570.796326794896
 40
2356.194490192344
 40
2356.194490192344
 40
3141.592653589793
 40
3141.592653589793
 40
3141.592653589793
 10
500.0005485267942
 20
-0.0001477286899672
 30
0.0
 41
1.0
 10
500.0005485267933
 20
499.9998522713103
 30
0.0
 41
0.7071067811865471
 10
0.0005485267934091
 20
499.9998522713096
 30
0.0
 41
1.0
 10
-499.999451473206
 20
499.9998522713096
 30
0.0
 41
0.7071067811865479
 10
-499.999451473206
 20
-0.0001477286898535
 30
0.0
 41
1.0
 10
-499.999451473206
 20
-500.0001477286893
 30
0.0
 41
0.7071067811865481
 10
0.0005485267934091
 20
-500.0001477286898
 30
0.0
 41
1.0
 10
500.0005485267933
 20
-500.0001477286904
 30
0.0
 41
0.7071067811865471
 10
500.0005485267942
 20
-0.0001477286899672
 30
0.0
 41
1.0
  0
SPLINE
  5
DD
330
1F
100
AcDbEntity
  8
Table_Miura_9555-01_2D
 62
     9
100
AcDbSpline
210
0.0
220
0.0
230
1.0
 70
    24
 71
     2
 72
     6
 73
     3
 74
     0
 42
0.0000000001
 43
0.0000000001
 40
0.0
 40
0.0
 40
0.0
 40
292.4637748391294
 40
292.4637748391294
 40
292.4637748391294
 10
131.8391889525283
 20
-47.09976536284622
 30
0.0
 10
258.4797183012172
 20
-120.215709072629
 30
0.0
 10
385.1202476499062
 20
-193.3316527824119
 30
0.0
  0
SPLINE
  5
DE
330
1F
100
AcDbEntity
  8
Table_Miura_9555-01_2D
 62
     9
100
AcDbSpline
210
0.0
220
0.0
230
1.0
 70
    24
 71
     2
 72
     6
 73
     3
 74
     0
 42
0.0000000001
 43
0.0000000001
 40
0.0
 40
0.0
 40
0.0
 40
292.4636352290658
 40
292.4636352290658
 40
292.4636352290658
 10
359.9902464901561
 20
-236.8580915853689
 30
0.0
 10
233.3497775943977
 20
-163.7421827781027
 30
0.0
 10
106.7093086986392
 20
-90.62627397083661
 30
0.0
  0
SPLINE
  5
DF
330
1F
100
AcDbEntity
  8
Table_Miura_9555-01_2D
 62
     9
100
AcDbSpline
210
0.0
220
0.0
230
1.0
 70
     8
 71
     3
 72
    16
 73
    12
 74
     0
 42
0.0000000001
 43
0.0000000001
 40
0.0
 40
0.0
 40
0.0
 40
0.0
 40
1.953259929472429
 40
3.893697348735647
 40
7.847459668867763
 40
11.91051884330159
 40
16.08272671121301
 40
20.36395351632568
 40
24.75412185613719
 40
29.18059527459946
 40
33.71437348097826
 40
33.71437348097826
 40
33.71437348097826
 40
33.71437348097826
 10
388.0182735784692
 20
-195.4085587814629
 30
0.0
 10
388.52583341729
 20
-195.8163469850343
 30
0.0
 10
389.4962294595467
 20
-196.680829927778
 30
0.0
 10
391.2618133300871
 20
-198.6157034820813
 30
0.0
 10
393.1097762750978
 20
-201.3927192084582
 30
0.0
 10
394.6698340385465
 20
-205.1640880688925
 30
0.0
 10
395.5334671461987
 20
-209.2631199056825
 30
0.0
 10
395.675887082471
 20
-213.5573625487886
 30
0.0
 10
395.0971226079813
 20
-217.89927596119
 30
0.0
 10
393.8163492744602
 20
-222.175213654878
 30
0.0
 10
392.5237676897345
 20
-224.8777312778844
 30
0.0
 10
391.7680841507204
 20
-226.1865408503279
 30
0.0
  0
SPLINE
  5
E0
330
1F
100
AcDbEntity
  8
Table_Miura_9555-01_2D
 62
     9
100
AcDbSpline
210
0.0
220
0.0
230
1.0
 70
     8
 71
     3
 72
    16
 73
    12
 74
     0
 42
0.0000000001
 43
0.0000000001
 40
0.0
 40
0.0
 40
0.0
 40
0.0
 40
4.517138909949124
 40
8.979902653169885
 40
13.35193316290752
 40
17.61498633655958
 40
21.78720834057724
 40
25.85028218879273
 40
29.82218011666251
 40
31.76261295261897
 40
33.71587578191723
 40
33.71587578191723
 40
33.71587578191723
 40
33.71587578191723
 10
391.7680841859192
 20
-226.1865408706321
 30
0.0
 10
391.0152352335226
 20
-227.4905569007226
 30
0.0
 10
389.3183579377469
 20
-229.9672753006667
 30
0.0
 10
386.2551712884169
 20
-233.2149443497529
 30
0.0
 10
382.7834916866545
 20
-235.885836555388
 30
0.0
 10
379.0049181767808
 20
-237.905187062287
 30
0.0
 10
375.0300070641746
 20
-239.2079194276056
 30
0.0
 10
370.9783071501529
 20
-239.7468146836387
 30
0.0
 10
367.6430810508787
 20
-239.5361305638716
 30
0.0
 10
365.078699877839
 20
-238.9732106489125
 30
0.0
 10
363.8448561542828
 20
-238.5650829537328
 30
0.0
 10
363.2379153485995
 20
-238.3294035162096
 30
0.0
  0
SPLINE
  5
E1
330
1F
100
AcDbEntity
  8
Table_Miura_9555-01_2D
 62
     9
100
AcDbSpline
210
0.0
220
0.0
230
1.0
 70
    24
 71
     2
 72
     6
 73
     3
 74
     0
 42
0.0000000001
 43
0.0000000001
 40
0.0
 40
0.0
 40
0.0
 40
0.0063928483433606
 40
0.0063928483433606
 40
0.0063928483433606
 10
359.9957835970035
 20
-236.8612871019521
 30
0.0
 10
359.9930261821241
 20
-236.8596703797535
 30
0.0
 10
359.9902687672448
 20
-236.858053657555
 30
0.0
  0
SPLINE
  5
E2
330
1F
100
AcDbEntity
  8
Table_Miura_9555-01_2D
 62
     9
100
AcDbSpline
210
0.0
220
0.0
230
1.0
 70
     8
 71
     3
 72
    21
 73
    17
 74
     0
 42
0.0000000001
 43
0.0000000001
 40
0.0
 40
0.0
 40
0.0
 40
0.0
 40
0.6474029135792418
 40
1.239961044886481
 40
2.476453160975514
 40
4.946874230086161
 40
9.811875716774579
 40
14.60311204865856
 40
19.26182109583128
 40
23.71953059288253
 40
28.04750617317449
 40
30.15634514329232
 40
32.34209708179572
 40
34.43001776247154
 40
35.4472927633531
 40
36.53849393442139
 40
36.53849393442139
 40
36.53849393442139
 40
36.53849393442139
 10
391.0212911389985
 20
-225.7620211977927
 30
0.0
 10
390.9126618850996
 20
-225.9484825747147
 30
0.0
 10
390.7033235367176
 20
-226.3049037443068
 30
0.0
 10
390.2675284385409
 20
-227.0060397194419
 30
0.0
 10
389.474604989824
 20
-228.200200531716
 30
0.0
 10
387.7462819711237
 20
-230.4787215285965
 30
0.0
 10
384.9069166327122
 20
-233.3760849779028
 30
0.0
 10
381.0171805482291
 20
-236.1721323043965
 30
0.0
 10
376.8038946855886
 20
-238.1551251293413
 30
0.0
 10
372.4381047957731
 20
-239.2590456145524
 30
0.0
 10
368.7893202341311
 20
-239.4148114995508
 30
0.0
 10
365.931822576013
 20
-239.0647659130972
 30
0.0
 10
363.8583343158643
 20
-238.5728053646318
 30
0.0
 10
362.1999990754016
 20
-237.9641368643885
 30
0.0
 10
360.9295987839832
 20
-237.3772378203039
 30
0.0
 10
360.3132009162628
 20
-237.0387913547884
 30
0.0
 10
359.995783597004
 20
-236.8612871019523
 30
0.0
  0
SPLINE
  5
E3
330
1F
100
AcDbEntity
  8
Table_Miura_9555-01_2D
 62
     9
100
AcDbSpline
210
0.0
220
0.0
230
1.0
 70
    24
 71
     2
 72
     6
 73
     3
 74
     0
 42
0.0000000001
 43
0.0000000001
 40
0.0
 40
0.0
 40
0.0
 40
0.0049999976304551
 40
0.0049999976304551
 40
0.0049999976304551
 10
391.0237901869282
 20
-225.7576905239712
 30
0.0
 10
391.0225406629635
 20
-225.7598558608819
 30
0.0
 10
391.0212911389985
 20
-225.7620211977927
 30
0.0
  0
SPLINE
  5
E4
330
1F
100
AcDbEntity
  8
Table_Miura_9555-01_2D
 62
     9
100
AcDbSpline
210
0.0
220
0.0
230
1.0
 70
    24
 71
     2
 72
     6
 73
     3
 74
     0
 42
0.0000000001
 43
0.0000000001
 40
0.0
 40
0.0
 40
0.0
 40
0.0049999976313646
 40
0.0049999976313646
 40
0.0049999976313646
 10
391.0262911365089
 20
-225.753360948067
 30
0.0
 10
391.0250406617186
 20
-225.7555257360191
 30
0.0
 10
391.0237901869282
 20
-225.7576905239712
 30
0.0
  0
SPLINE
  5
E5
330
1F
100
AcDbEntity
  8
Table_Miura_9555-01_2D
 62
     9
100
AcDbSpline
210
0.0
220
0.0
230
1.0
 70
     8
 71
     3
 72
    21
 73
    17
 74
     0
 42
0.0000000001
 43
0.0000000001
 40
0.0
 40
0.0
 40
0.0
 40
0.0
 40
1.091201171068477
 40
2.108476171950744
 40
4.196396852625396
 40
6.382148791129787
 40
8.490987761247719
 40
12.81896334153915
 40
17.27667283858979
 40
21.93538188576371
 40
26.72661821764646
 40
31.59161970433673
 40
34.0620407734465
 40
35.29853288953552
 40
35.89109102084186
 40
36.53849393442204
 40
36.53849393442204
 40
36.53849393442204
 40
36.53849393442204
 10
385.1257836018717
 20
-193.3348502993143
 30
0.0
 10
385.4382063358753
 20
-193.5210034730012
 30
0.0
 10
386.0395338968097
 20
-193.8855579183765
 30
0.0
 10
387.1829746470758
 20
-194.692469675264
 30
0.0
 10
388.5392119505455
 20
-195.8239442608012
 30
0.0
 10
390.0021961517919
 20
-197.3741064216471
 30
0.0
 10
391.7338535395897
 20
-199.6734082052285
 30
0.0
 10
393.4235431743624
 20
-202.9113814185383
 30
0.0
 10
394.6503320160355
 20
-207.2442157051474
 30
0.0
 10
395.0396611698911
 20
-211.884456572264
 30
0.0
 10
394.5628915621601
 20
-216.6510908041939
 30
0.0
 10
393.4737307118372
 20
-220.5588087571803
 30
0.0
 10
392.3642842356981
 20
-223.1947220490297
 30
0.0
 10
391.7269324326171
 20
-224.4786495809259
 30
0.0
 10
391.3374521800148
 20
-225.2065487853804
 30
0.0
 10
391.1334595735379
 20
-225.5660560873263
 30
0.0
 10
391.0262911365085
 20
-225.7533609480678
 30
0.0
  0
SPLINE
  5
E6
330
1F
100
AcDbEntity
  8
Table_Miura_9555-01_2D
 62
     9
100
AcDbSpline
210
0.0
220
0.0
230
1.0
 70
    24
 71
     2
 72
     6
 73
     3
 74
     0
 42
0.0000000001
 43
0.0000000001
 40
0.0
 40
0.0
 40
0.0
 40
0.006392848346089
 40
0.006392848346089
 40
0.006392848346089
 10
385.1202259420007
 20
-193.3316910388425
 30
0.0
 10
385.1230047719362
 20
-193.3332706690784
 30
0.0
 10
385.1257836018717
 20
-193.3348502993143
 30
0.0
  0
SPLINE
  5
E7
330
1F
100
AcDbEntity
  8
Table_Miura_9555-01_2D
 62
     9
100
AcDbSpline
210
0.0
220
0.0
230
1.0
 70
    24
 71
     2
 72
     6
 73
     3
 74
     0
 42
0.0000000001
 43
0.0000000001
 40
0.0
 40
0.0
 40
0.0
 40
292.4637748391294
 40
292.4637748391294
 40
292.4637748391294
 10
-106.7091877927755
 20
-90.62620416580351
 30
0.0
 10
-233.3497171414648
 20
-163.7421478755854
 30
0.0
 10
-359.990246490154
 20
-236.8580915853674
 30
0.0
  0
SPLINE
  5
E8
330
1F
100
AcDbEntity
  8
Table_Miura_9555-01_2D
 62
     9
100
AcDbSpline
210
0.0
220
0.0
230
1.0
 70
    24
 71
     2
 72
     6
 73
     3
 74
     0
 42
0.0000000001
 43
0.0000000001
 40
0.0
 40
0.0
 40
0.0
 40
292.4636352290658
 40
292.4636352290658
 40
292.4636352290658
 10
-385.1202476499086
 20
-193.3316527824128
 30
0.0
 10
-258.4797787541505
 20
-120.215743975146
 30
0.0
 10
-131.8393098583924
 20
-47.0998351678792
 30
0.0
  0
SPLINE
  5
E9
330
1F
100
AcDbEntity
  8
Table_Miura_9555-01_2D
 62
     9
100
AcDbSpline
210
0.0
220
0.0
230
1.0
 70
     8
 71
     3
 72
    16
 73
    12
 74
     0
 42
0.0000000001
 43
0.0000000001
 40
0.0
 40
0.0
 40
0.0
 40
0.0
 40
1.953259929472429
 40
3.893697348735647
 40
7.847459668867763
 40
11.91051884330159
 40
16.08272671121301
 40
20.36395351632568
 40
24.75412185613719
 40
29.18059527459946
 40
33.71437348097826
 40
33.71437348097826
 40
33.71437348097826
 40
33.71437348097826
 10
-363.237912810886
 20
-238.3294026608033
 30
0.0
 10
-363.8448476739529
 20
-238.5650682733773
 30
0.0
 10
-365.0787098846356
 20
-238.9732144263316
 30
0.0
 10
-367.6371514710431
 20
-239.5348181335798
 30
0.0
 10
-370.9660991092999
 20
-239.7466931260232
 30
0.0
 10
-375.0122292312018
 20
-239.2120583503237
 30
0.0
 10
-378.9939114866092
 20
-237.9104706427047
 30
0.0
 10
-382.7840446736898
 20
-235.886688603969
 30
0.0
 10
-386.254869752617
 20
-233.2145071600523
 30
0.0
 10
-389.3175537535894
 20
-229.9673560698891
 30
0.0
 10
-391.0117118769253
 20
-227.4966887695495
 30
0.0
 10
-391.7673324458706
 20
-226.1878428413197
 30
0.0
  0
SPLINE
  5
EA
330
1F
100
AcDbEntity
  8
Table_Miura_9555-01_2D
 62
     9
100
AcDbSpline
210
0.0
220
0.0
230
1.0
 70
     8
 71
     3
 72
    16
 73
    12
 74
     0
 42
0.0000000001
 43
0.0000000001
 40
0.0
 40
0.0
 40
0.0
 40
0.0
 40
4.517138909949124
 40
8.979902653169885
 40
13.35193316290752
 40
17.61498633655958
 40
21.78720834057724
 40
25.85028218879273
 40
29.82218011666251
 40
31.76261295261897
 40
33.71587578191723
 40
33.71587578191723
 40
33.71587578191723
 40
33.71587578191723
 10
-391.7673324810542
 20
-226.1878428616508
 30
0.0
 10
-392.5202190138561
 20
-224.8838485286176
 30
0.0
 10
-393.8166814183405
 20
-222.175950483399
 30
0.0
 10
-395.0976519932685
 20
-217.8993185040026
 30
0.0
 10
-395.6748726932372
 20
-213.5573096722586
 30
0.0
 10
-395.53439477642
 20
-209.2752937691917
 30
0.0
 10
-394.6751385428149
 20
-205.1815535852302
 30
0.0
 10
-393.1159855675076
 20
-201.4032309031596
 30
0.0
 10
-391.2659147179781
 20
-198.6201824337068
 30
0.0
 10
-389.4962211848074
 20
-196.6808231503474
 30
0.0
 10
-388.5258503710158
 20
-195.8163469890376
 30
0.0
 10
-388.0182755881294
 20
-195.4085605514842
 30
0.0
  0
SPLINE
  5
EB
330
1F
100
AcDbEntity
  8
Table_Miura_9555-01_2D
 62
     9
100
AcDbSpline
210
0.0
220
0.0
230
1.0
 70
    24
 71
     2
 72
     6
 73
     3
 74
     0
 42
0.0000000001
 43
0.0000000001
 40
0.0
 40
0.0
 40
0.0
 40
0.0063928483433606
 40
0.0063928483433606
 40
0.0063928483433606
 10
-385.1257836018717
 20
-193.3348502993148
 30
0.0
 10
-385.1230047719371
 20
-193.3332706690796
 30
0.0
 10
-385.1202259420024
 20
-193.3316910388444
 30
0.0
  0
SPLINE
  5
EC
330
1F
100
AcDbEntity
  8
Table_Miura_9555-01_2D
 62
     9
100
AcDbSpline
210
0.0
220
0.0
230
1.0
 70
     8
 71
     3
 72
    21
 73
    17
 74
     0
 42
0.0000000001
 43
0.0000000001
 40
0.0
 40
0.0
 40
0.0
 40
0.0
 40
0.6474029135792418
 40
1.239961044886481
 40
2.476453160975514
 40
4.946874230086161
 40
9.811875716774579
 40
14.60311204865856
 40
19.26182109583128
 40
23.71953059288253
 40
28.04750617317449
 40
30.15634514329232
 40
32.34209708179572
 40
34.43001776247154
 40
35.4472927633531
 40
36.53849393442139
 40
36.53849393442139
 40
36.53849393442139
 40
36.53849393442139
 10
-391.0262911365085
 20
-225.7533609480676
 30
0.0
 10
-391.1334567987983
 20
-225.5660545661363
 30
0.0
 10
-391.3374574119205
 20
-225.206551653655
 30
0.0
 10
-391.7267614288064
 20
-224.4785740402216
 30
0.0
 10
-392.364473304081
 20
-223.1948017842392
 30
0.0
 10
-393.4735688610858
 20
-220.5587696456593
 30
0.0
 10
-394.5630765429755
 20
-216.6511254073167
 30
0.0
 10
-395.0396565156614
 20
-211.8844914808905
 30
0.0
 10
-394.6503357462655
 20
-207.2441824779657
 30
0.0
 10
-393.4234639853087
 20
-202.9113372831946
 30
0.0
 10
-391.7339689179391
 20
-199.673514217377
 30
0.0
 10
-390.0020717185287
 20
-197.373871447419
 30
0.0
 10
-388.5392772558237
 20
-195.824158213914
 30
0.0
 10
-387.1829872518984
 20
-194.6923320178042
 30
0.0
 10
-386.0395176245549
 20
-193.8855826145029
 30
0.0
 10
-385.4382154537373
 20
-193.5209896349761
 30
0.0
 10
-385.1257836018719
 20
-193.3348502993151
 30
0.0
  0
SPLINE
  5
ED
330
1F
100
AcDbEntity
  8
Table_Miura_9555-01_2D
 62
     9
100
AcDbSpline
210
0.0
220
0.0
230
1.0
 70
    24
 71
     2
 72
     6
 73
     3
 74
     0
 42
0.0000000001
 43
0.0000000001
 40
0.0
 40
0.0
 40
0.0
 40
0.0049999976304551
 40
0.0049999976304551
 40
0.0049999976304551
 10
-391.0237901869286
 20
-225.757690523971
 30
0.0
 10
-391.0250406617186
 20
-225.7555257360194
 30
0.0
 10
-391.0262911365085
 20
-225.7533609480676
 30
0.0
  0
SPLINE
  5
EE
330
1F
100
AcDbEntity
  8
Table_Miura_9555-01_2D
 62
     9
100
AcDbSpline
210
0.0
220
0.0
230
1.0
 70
    24
 71
     2
 72
     6
 73
     3
 74
     0
 42
0.0000000001
 43
0.0000000001
 40
0.0
 40
0.0
 40
0.0
 40
0.0049999976313646
 40
0.0049999976313646
 40
0.0049999976313646
 10
-391.0212911389981
 20
-225.7620211977932
 30
0.0
 10
-391.0225406629635
 20
-225.7598558608821
 30
0.0
 10
-391.0237901869286
 20
-225.757690523971
 30
0.0
  0
SPLINE
  5
EF
330
1F
100
AcDbEntity
  8
Table_Miura_9555-01_2D
 62
     9
100
AcDbSpline
210
0.0
220
0.0
230
1.0
 70
     8
 71
     3
 72
    21
 73
    17
 74
     0
 42
0.0000000001
 43
0.0000000001
 40
0.0
 40
0.0
 40
0.0
 40
0.0
 40
1.091201171068477
 40
2.108476171950744
 40
4.196396852625396
 40
6.382148791129787
 40
8.490987761247719
 40
12.81896334153915
 40
17.27667283858979
 40
21.93538188576371
 40
26.72661821764646
 40
31.59161970433673
 40
34.0620407734465
 40
35.29853288953552
 40
35.89109102084186
 40
36.53849393442204
 40
36.53849393442204
 40
36.53849393442204
 40
36.53849393442204
 10
-359.9957835970035
 20
-236.8612871019527
 30
0.0
 10
-360.313208341413
 20
-237.0387765394758
 30
0.0
 10
-360.9295855326379
 20
-237.3772642605531
 30
0.0
 10
-362.2001119878478
 20
-237.964057119562
 30
0.0
 10
-363.8581163743943
 20
-238.5728557851583
 30
0.0
 10
-365.9320882862955
 20
-239.0647561883501
 30
0.0
 10
-368.7891707357428
 20
-239.4147645850435
 30
0.0
 10
-372.4381826126288
 20
-239.2590921266128
 30
0.0
 10
-376.8039215960572
 20
-238.1551052852764
 30
0.0
 10
-381.0171526435865
 20
-236.172153789391
 30
0.0
 10
-384.9067941751209
 20
-233.3759420813786
 30
0.0
 10
-387.7463967680703
 20
-230.4788421396983
 30
0.0
 10
-389.4744414029153
 20
-228.2000766612983
 30
0.0
 10
-390.2676793606151
 20
-227.006150042734
 30
0.0
 10
-390.7033184367663
 20
-226.3049006474807
 30
0.0
 10
-390.9126645898592
 20
-225.9484842171149
 30
0.0
 10
-391.0212911389985
 20
-225.7620211977924
 30
0.0
  0
SPLINE
  5
F0
330
1F
100
AcDbEntity
  8
Table_Miura_9555-01_2D
 62
     9
100
AcDbSpline
210
0.0
220
0.0
230
1.0
 70
    24
 71
     2
 72
     6
 73
     3
 74
     0
 42
0.0000000001
 43
0.0000000001
 40
0.0
 40
0.0
 40
0.0
 40
0.006392848346089
 40
0.006392848346089
 40
0.006392848346089
 10
-359.990268767242
 20
-236.8580536575542
 30
0.0
 10
-359.9930261821228
 20
-236.8596703797534
 30
0.0
 10
-359.9957835970035
 20
-236.8612871019527
 30
0.0
  0
SPLINE
  5
F1
330
1F
100
AcDbEntity
  8
Table_Miura_9555-01_2D
 62
     9
100
AcDbSpline
210
0.0
220
0.0
230
1.0
 70
    24
 71
     2
 72
     6
 73
     3
 74
     0
 42
0.0000000001
 43
0.0000000001
 40
0.0
 40
0.0
 40
0.0
 40
292.4637748391294
 40
292.4637748391294
 40
292.4637748391294
 10
-25.13000115975319
 20
137.7259695286496
 30
0.0
 10
-25.13000115975274
 20
283.9578569482143
 30
0.0
 10
-25.13000115975228
 20
430.1897443677789
 30
0.0
  0
SPLINE
  5
F2
330
1F
100
AcDbEntity
  8
Table_Miura_9555-01_2D
 62
     9
100
AcDbSpline
210
0.0
220
0.0
230
1.0
 70
    24
 71
     2
 72
     6
 73
     3
 74
     0
 42
0.0000000001
 43
0.0000000001
 40
0.0
 40
0.0
 40
0.0
 40
292.4636352290658
 40
292.4636352290658
 40
292.4636352290658
 10
25.13000115975228
 20
430.1897443677815
 30
0.0
 10
25.13000115975274
 20
283.9579267532486
 30
0.0
 10
25.13000115975319
 20
137.7261091387156
 30
0.0
  0
SPLINE
  5
F3
330
1F
100
AcDbEntity
  8
Table_Miura_9555-01_2D
 62
     9
100
AcDbSpline
210
0.0
220
0.0
230
1.0
 70
     8
 71
     3
 72
    16
 73
    12
 74
     0
 42
0.0000000001
 43
0.0000000001
 40
0.0
 40
0.0
 40
0.0
 40
0.0
 40
1.953259929472429
 40
3.893697348735647
 40
7.847459668867763
 40
11.91051884330159
 40
16.08272671121301
 40
20.36395351632568
 40
24.75412185613719
 40
29.18059527459946
 40
33.71437348097826
 40
33.71437348097826
 40
33.71437348097826
 40
33.71437348097826
 10
-24.78036076758326
 20
433.7379614422657
 30
0.0
 10
-24.68098574333727
 20
434.3814152584114
 30
0.0
 10
-24.41751957491124
 20
435.6540443541093
 30
0.0
 10
-23.62466185904395
 20
438.1505216156608
 30
0.0
 10
-22.14367716579818
 20
441.1394123344812
 30
0.0
 10
-19.6576048073448
 20
444.376146419216
 30
0.0
 10
-16.5395556595895
 20
447.1735905483869
 30
0.0
 10
-12.89184240878149
 20
449.4440511527574
 30
0.0
 10
-8.842252855364677
 20
451.1137831212419
 30
0.0
 10
-4.498795520870771
 20
452.1425697247669
 30
0.0
 10
-1.512055812809194
 20
452.3744200474337
 30
0.0
 10
-0.0007517048497903
 20
452.3743836916473
 30
0.0
  0
SPLINE
  5
F4
330
1F
100
AcDbEntity
  8
Table_Miura_9555-01_2D
 62
     9
100
AcDbSpline
210
0.0
220
0.0
230
1.0
 70
     8
 71
     3
 72
    16
 73
    12
 74
     0
 42
0.0000000001
 43
0.0000000001
 40
0.0
 40
0.0
 40
0.0
 40
0.0
 40
4.517138909949124
 40
8.979902653169885
 40
13.35193316290752
 40
17.61498633655958
 40
21.78720834057724
 40
25.85028218879273
 40
29.82218011666251
 40
31.76261295261897
 40
33.71587578191723
 40
33.71587578191723
 40
33.71587578191723
 40
33.71587578191723
 10
-0.0007517048652517
 20
452.3743837322826
 30
0.0
 10
1.504983780333532
 20
452.37440542934
 30
0.0
 10
4.498323480593171
 20
452.1432257840654
 30
0.0
 10
8.842480704851368
 20
451.1142628537552
 30
0.0
 10
12.89138100658238
 20
449.4431462276464
 30
0.0
 10
16.52947659963866
 20
447.1804808314785
 30
0.0
 10
19.64513147864
 20
444.3894730128357
 30
0.0
 10
22.13767841735444
 20
441.150045586798
 30
0.0
 10
23.62283366709926
 20
438.1563129975782
 30
0.0
 10
24.41752130696841
 20
435.6540337992597
 30
0.0
 10
24.68099421673287
 20
434.3814299427702
 30
0.0
 10
24.78036023952973
 20
433.7379640676935
 30
0.0
  0
SPLINE
  5
F5
330
1F
100
AcDbEntity
  8
Table_Miura_9555-01_2D
 62
     9
100
AcDbSpline
210
0.0
220
0.0
230
1.0
 70
    24
 71
     2
 72
     6
 73
     3
 74
     0
 42
0.0000000001
 43
0.0000000001
 40
0.0
 40
0.0
 40
0.0
 40
0.0063928483433606
 40
0.0063928483433606
 40
0.0063928483433606
 10
25.13000000486772
 20
430.1961374012667
 30
0.0
 10
25.12997858981271
 20
430.1929410488328
 30
0.0
 10
25.12995717475769
 20
430.1897446963991
 30
0.0
  0
SPLINE
  5
F6
330
1F
100
AcDbEntity
  8
Table_Miura_9555-01_2D
 62
     9
100
AcDbSpline
210
0.0
220
0.0
230
1.0
 70
     8
 71
     3
 72
    21
 73
    17
 74
     0
 42
0.0000000001
 43
0.0000000001
 40
0.0
 40
0.0
 40
0.0
 40
0.0
 40
0.6474029135792418
 40
1.239961044886481
 40
2.476453160975514
 40
4.946874230086161
 40
9.811875716774579
 40
14.60311204865856
 40
19.26182109583128
 40
23.71953059288253
 40
28.04750617317449
 40
30.15634514329232
 40
32.34209708179572
 40
34.43001776247154
 40
35.4472927633531
 40
36.53849393442139
 40
36.53849393442139
 40
36.53849393442139
 40
36.53849393442139
 10
0.0049999975099126
 20
451.5153821458599
 30
0.0
 10
0.2207949136982279
 20
451.5145371408507
 30
0.0
 10
0.6341338752026786
 20
451.5114553979615
 30
0.0
 10
1.459232990265264
 20
451.4846137596633
 30
0.0
 10
2.889868314257001
 20
451.395002315955
 30
0.0
 10
5.727286889961761
 20
451.0374911742555
 30
0.0
 10
9.656159910263339
 20
450.0272103852191
 30
0.0
 10
14.022475967432
 20
448.0566237852867
 30
0.0
 10
17.84644106067663
 20
445.3993076073068
 30
0.0
 10
20.9853591895353
 20
442.1703828977468
 30
0.0
 10
22.94464868380783
 20
439.0883257169276
 30
0.0
 10
24.07024914251542
 20
436.4386373605158
 30
0.0
 10
24.6809429399591
 20
434.3969635785455
 30
0.0
 10
24.98298817649629
 20
432.6564688821925
 30
0.0
 10
25.10991884057148
 20
431.2628204348065
 30
0.0
 10
25.12501453747427
 20
430.5597809897641
 30
0.0
 10
25.13000000486772
 20
430.1961374012671
 30
0.0
  0
SPLINE
  5
F7
330
1F
100
AcDbEntity
  8
Table_Miura_9555-01_2D
 62
     9
100
AcDbSpline
210
0.0
220
0.0
230
1.0
 70
    24
 71
     2
 72
     6
 73
     3
 74
     0
 42
0.0000000001
 43
0.0000000001
 40
0.0
 40
0.0
 40
0.0
 40
0.0049999976304551
 40
0.0049999976304551
 40
0.0049999976304551
 10
0.0
 20
451.5153810479419
 30
0.0
 10
0.0024999987549563
 20
451.515381596901
 30
0.0
 10
0.0049999975099126
 20
451.5153821458599
 30
0.0
  0
SPLINE
  5
F8
330
1F
100
AcDbEntity
  8
Table_Miura_9555-01_2D
 62
     9
100
AcDbSpline
210
0.0
220
0.0
230
1.0
 70
    24
 71
     2
 72
     6
 73
     3
 74
     0
 42
0.0000000001
 43
0.0000000001
 40
0.0
 40
0.0
 40
0.0
 40
0.0049999976313646
 40
0.0049999976313646
 40
0.0049999976313646
 10
-0.0049999975108221
 20
451.5153821458599
 30
0.0
 10
-0.0024999987554111
 20
451.515381596901
 30
0.0
 10
0.0
 20
451.5153810479419
 30
0.0
  0
SPLINE
  5
F9
330
1F
100
AcDbEntity
  8
Table_Miura_9555-01_2D
 62
     9
100
AcDbSpline
210
0.0
220
0.0
230
1.0
 70
     8
 71
     3
 72
    21
 73
    17
 74
     0
 42
0.0000000001
 43
0.0000000001
 40
0.0
 40
0.0
 40
0.0
 40
0.0
 40
1.091201171068477
 40
2.108476171950744
 40
4.196396852625396
 40
6.382148791129787
 40
8.490987761247719
 40
12.81896334153915
 40
17.27667283858979
 40
21.93538188576371
 40
26.72661821764646
 40
31.59161970433673
 40
34.0620407734465
 40
35.29853288953552
 40
35.89109102084186
 40
36.53849393442204
 40
36.53849393442204
 40
36.53849393442204
 40
36.53849393442204
 10
-25.13000000486863
 20
430.1961374012667
 30
0.0
 10
-25.12499799446232
 20
430.5597800124767
 30
0.0
 10
-25.10994836417195
 20
431.2628221789293
 30
0.0
 10
-24.98286265922799
 20
432.6565267948258
 30
0.0
 10
-24.68109557615117
 20
434.3968000459593
 30
0.0
 10
-24.07010786549654
 20
436.4388626099969
 30
0.0
 10
-22.94468280384717
 20
439.0881727902717
 30
0.0
 10
-20.98536056173361
 20
442.1704735451508
 30
0.0
 10
-17.84641041997837
 20
445.3993209904236
 30
0.0
 10
-14.02250852630459
 20
448.0566103616546
 30
0.0
 10
-9.656097387039155
 20
450.0270328855722
 30
0.0
 10
-5.727333943767007
 20
451.0376508968783
 30
0.0
 10
-2.88984283278296
 20
451.3947987103277
 30
0.0
 10
-1.459253072001956
 20
451.4847996236596
 30
0.0
 10
-0.6341337432486398
 20
451.5114494328608
 30
0.0
 10
-0.2207949836792977
 20
451.5145403044409
 30
0.0
 10
-0.0049999975099126
 20
451.5153821458599
 30
0.0
  0
SPLINE
  5
FA
330
1F
100
AcDbEntity
  8
Table_Miura_9555-01_2D
 62
     9
100
AcDbSpline
210
0.0
220
0.0
230
1.0
 70
    24
 71
     2
 72
     6
 73
     3
 74
     0
 42
0.0000000001
 43
0.0000000001
 40
0.0
 40
0.0
 40
0.0
 40
0.006392848346089
 40
0.006392848346089
 40
0.006392848346089
 10
-25.1299571747586
 20
430.1897446963964
 30
0.0
 10
-25.12997858981363
 20
430.1929410488316
 30
0.0
 10
-25.13000000486863
 20
430.1961374012667
 30
0.0
  0
SPLINE
  5
FB
330
1F
100
AcDbEntity
  8
Table_Miura_9555-01_2D
 62
     9
100
AcDbSpline
210
0.0
220
0.0
230
1.0
 70
     8
 71
     3
 72
    39
 73
    35
 74
     0
 42
0.0000000001
 43
0.0000000001
 40
0.0
 40
0.0
 40
0.0
 40
0.0
 40
27.4916163463202
 40
54.98552609366759
 40
82.47415387133962
 40
109.9550666193913
 40
137.440491663776
 40
164.9352831443544
 40
192.4180366196708
 40
219.9101260951808
 40
247.4017610079934
 40
274.8956707553411
 40
302.3842985330118
 40
329.8652112810635
 40
357.3506363254479
 40
384.8454278060252
 40
412.3281812813432
 40
439.8202707568534
 40
467.3119056696634
 40
494.8058154170109
 40
522.2944431946826
 40
549.7753559427336
 40
577.2607809871195
 40
604.7555724676981
 40
632.2383259430145
 40
659.7304154185252
 40
687.2220503313359
 40
714.7159600786838
 40
742.2045878563551
 40
769.6855006044066
 40
797.1709256487923
 40
824.6657171293698
 40
852.1484706046877
 40
879.6405600801984
 40
879.6405600801984
 40
879.6405600801984
 40
879.6405600801984
 10
140.0000000005521
 20
-0.0000185667149708
 30
0.0
 10
140.0004078053898
 20
-9.163918020976323
 30
0.0
 10
138.1944194105972
 20
-27.49226746565137
 30
0.0
 10
130.1746570608257
 20
-53.92691684113788
 30
0.0
 10
117.1529651416831
 20
-78.28553407702111
 30
0.0
 10
99.63172728014072
 20
-99.63384262041381
 30
0.0
 10
78.28162397611869
 20
-117.1562359952052
 30
0.0
 10
53.92195901494325
 20
-130.1759647592576
 30
0.0
 10
27.48925607806723
 20
-138.1956047753166
 30
0.0
 10
-0.0000802954182291
 20
-140.9019314174183
 30
0.0
 10
-27.492175347581
 20
-138.1952675994852
 30
0.0
 10
-53.92697059658713
 20
-130.1741390086343
 30
0.0
 10
-78.28550091688613
 20
-117.1532839944568
 30
0.0
 10
-99.63386305126642
 20
-99.63153087867
 30
0.0
 10
-117.156223404817
 20
-78.28174500353203
 30
0.0
 10
-130.1759725149705
 20
-53.92188446203771
 30
0.0
 10
-138.1955999973525
 20
-27.4893020069394
 30
0.0
 10
-140.9019343612745
 20
0.0001085936175969
 30
0.0
 10
-138.1952657857773
 20
27.49215791311349
 30
0.0
 10
-130.1741401260242
 20
53.92698133759767
 30
0.0
 10
-117.1532833061847
 20
78.28549430084011
 30
0.0
 10
-99.63153130266347
 20
99.63386712687858
 30
0.0
 10
-78.28174474225763
 20
117.1562208932926
 30
0.0
 10
-53.92188462297871
 20
130.175974062071
 30
0.0
 10
-27.48930190778901
 20
138.1955990442473
 30
0.0
 10
0.0001085325311578
 20
140.9019349485079
 30
0.0
 10
27.49215795074724
 20
138.1952654239869
 30
0.0
 10
53.92698131441102
 20
130.1741403489139
 30
0.0
 10
78.28549431512602
 20
117.153283168899
 30
0.0
 10
99.63394752378555
 20
99.6316061575435
 30
0.0
 10
117.1558984336116
 20
78.28154887639105
 30
0.0
 10
130.176416694525
 20
53.9221498362415
 30
0.0
 10
138.1952207402119
 20
27.48900208423697
 30
0.0
 10
139.9993145385743
 20
9.163944759148536
 30
0.0
 10
140.0
 20
0.0
 30
0.0
  0
SPLINE
  5
FC
330
1F
100
AcDbEntity
  8
Table_Miura_9555-01_2D
 62
     9
100
AcDbSpline
210
0.0
220
0.0
230
1.0
 70
    11
 71
     3
 72
    39
 73
    35
 74
     0
 42
0.0000000001
 43
0.0000000001
 40
0.0
 40
0.0
 40
0.0
 40
0.0
 40
17.9813396320814
 40
35.96416715575467
 40
53.94353992342754
 40
71.91786655367332
 40
89.89514452286757
 40
107.8785487581382
 40
125.8540793452332
 40
143.835716291255
 40
161.8170559233361
 40
179.799883447011
 40
197.7792562146831
 40
215.753582844929
 40
233.7308608141237
 40
251.7142650493934
 40
269.6897956364883
 40
287.6714325825101
 40
305.6527722145917
 40
323.6355997382652
 40
341.6149725059374
 40
359.5892991361834
 40
377.5665771053783
 40
395.5499813406484
 40
413.5255119277422
 40
431.507148873765
 40
449.4884885058461
 40
467.4713160295195
 40
485.4506887971921
 40
503.4250154274388
 40
521.4022933966336
 40
539.3856976319031
 40
557.3612282189978
 40
575.3428651650202
 40
575.3428651650202
 40
575.3428651650202
 40
575.3428651650202
 10
91.56921938165305
 20
0.0
 30
0.0
 10
91.56948691079016
 20
-5.993797758919527
 30
0.0
 10
90.38825195473691
 20
-17.98174947099915
 30
0.0
 10
85.14279807375169
 20
-35.27175484858412
 30
0.0
 10
76.62575404482321
 20
-51.20389460220575
 30
0.0
 10
65.16571066203687
 20
-65.16709423389603
 30
0.0
 10
51.20133713873838
 20
-76.62789339838468
 30
0.0
 10
35.268512103763
 20
-85.14365339470419
 30
0.0
 10
17.97978371751105
 20
-90.38902608036641
 30
0.0
 10
-0.00005251849052
 20
-92.15914192328682
 30
0.0
 10
-17.98169311200945
 20
-90.38880554516731
 30
0.0
 10
-35.27179000818796
 20
-85.14245923356794
 30
0.0
 10
-51.20387291329734
 20
-76.62596259549788
 30
0.0
 10
-65.167107597018
 20
-65.16558220256206
 30
0.0
 10
-76.62788516344699
 20
-51.20141629862292
 30
0.0
 10
-85.14365846744569
 20
-35.26846334125935
 30
0.0
 10
-90.38902295526531
 20
-17.97981375801464
 30
0.0
 10
-92.15914384876032
 20
0.0000710273777713
 30
0.0
 10
-90.38880435888223
 20
17.98168170872168
 30
0.0
 10
-85.14245996441696
 20
35.27179703351908
 30
0.0
 10
-76.62596214532005
 20
51.20386858596339
 30
0.0
 10
-65.16558247987996
 20
65.16711026274084
 30
0.0
 10
-51.2014161277275
 20
76.62788352073949
 30
0.0
 10
-35.26846344653132
 20
85.1436594793563
 30
0.0
 10
-17.97981369316312
 20
90.38902233186993
 30
0.0
 10
0.0000709874184395
 20
92.159144232852
 30
0.0
 10
17.98168173334034
 20
90.38880412225037
 30
0.0
 10
35.27179701835486
 20
85.14246011019805
 30
0.0
 10
51.20386859530207
 20
76.6259620555277
 30
0.0
 10
65.16716284761971
 20
65.16563143990402
 30
0.0
 10
76.62767261086901
 20
51.20128801855639
 30
0.0
 10
85.14394899013224
 20
35.26863691346444
 30
0.0
 10
90.38877489611696
 20
17.9796175888157
 30
0.0
 10
91.56877104474279
 20
5.993823343226949
 30
0.0
 10
91.56921938165305
 20
0.0
 30
0.0
  0
SPLINE
  5
FD
330
1F
100
AcDbEntity
  8
Table_Miura_9555-01_2D
 62
     9
100
AcDbSpline
210
0.0
220
0.0
230
1.0
 70
    15
 71
     2
 72
    12
 73
     9
 74
     0
 42
0.0000000001
 43
0.0000000001
 40
0.0
 40
0.0
 40
0.0
 40
78.53981633974483
 40
78.53981633974483
 40
157.0796326794897
 40
157.0796326794897
 40
235.6194490192345
 40
235.6194490192345
 40
314.1592653589793
 40
314.1592653589793
 40
314.1592653589793
 10
50.0
 20
0.0
 30
0.0
 41
1.0
 10
49.99999999999961
 20
50.0
 30
0.0
 41
0.7071067811865476
 10
0.0
 20
50.0
 30
0.0
 41
1.0
 10
-49.99999999999925
 20
50.0
 30
0.0
 41
0.7071067811865476
 10
-50.0
 20
0.0
 30
0.0
 41
1.0
 10
-49.99999999999925
 20
-50.00000000000015
 30
0.0
 41
0.7071067811865476
 10
0.0
 20
-50.0
 30
0.0
 41
1.0
 10
49.99999999999961
 20
-50.00000000000015
 30
0.0
 41
0.7071067811865476
 10
50.0
 20
0.0
 30
0.0
 41
1.0
  0
SPLINE
  5
FE
330
1F
100
AcDbEntity
  8
Table_Miura_9555-01_2D
100
AcDbSpline
210
0.0
220
0.0
230
1.0
 70
    24
 71
     2
 72
     6
 73
     3
 74
     0
 42
0.0000000001
 43
0.0000000001
 40
0.0
 40
0.0
 40
0.0
 40
0.0003644189914382
 40
0.0003644189914382
 40
0.0003644189914382
 10
1454.751604422715
 20
1588.656470074762
 30
0.0
 10
1454.751422213219
 20
1588.656470074737
 30
0.0
 10
1454.751240003724
 20
1588.656470074712
 30
0.0
  0
SPLINE
  5
FF
330
1F
100
AcDbEntity
  8
Table_Miura_9555-01_2D
100
AcDbSpline
210
0.0
220
0.0
230
1.0
 70
     8
 71
     3
 72
    12
 73
     8
 74
     0
 42
0.0000000001
 43
0.0000000001
 40
0.0
 40
0.0
 40
0.0
 40
0.0
 40
0.1167120639292131
 40
0.2430944609352435
 40
0.5000268890606814
 40
0.7758895689378357
 40
1.056331722181715
 40
1.056331722181715
 40
1.056331722181715
 40
1.056331722181715
 10
1466.815273889671
 20
1583.65580655944
 30
0.0
 10
1466.854138594232
 20
1583.654238351344
 30
0.0
 10
1466.934863154106
 20
1583.644480956858
 30
0.0
 10
1467.095459736224
 20
1583.597972701889
 30
0.0
 10
1467.288308196941
 20
1583.486857712322
 30
0.0
 10
1467.472512346724
 20
1583.284002361169
 30
0.0
 10
1467.556467105373
 20
1583.116906477561
 30
0.0
 10
1467.587057189203
 20
1583.028554185393
 30
0.0
  0
SPLINE
  5
100
330
1F
100
AcDbEntity
  8
Table_Miura_9555-01_2D
100
AcDbSpline
210
0.0
220
0.0
230
1.0
 70
    12
 71
     5
 72
    12
 73
     6
 74
     0
 42
0.0000000001
 43
0.0000000001
 40
0.0589558208107204
 40
0.0589558208107204
 40
0.0589558208107204
 40
0.0589558208107204
 40
0.0589558208107204
 40
0.0589558208107204
 40
0.9432931329715263
 40
0.9432931329715263
 40
0.9432931329715263
 40
0.9432931329715263
 40
0.9432931329715263
 40
0.9432931329715263
 10
1028.904275266375
 20
1127.119175849218
 30
0.0
 41
1.0
 10
1028.775110005079
 20
1127.115621776209
 30
0.0
 41
1.0
 10
1028.607958965997
 20
1127.086881544574
 30
0.0
 41
1.0
 10
1028.255184376999
 20
1126.928625019545
 30
0.0
 41
1.0
 10
1028.173886027109
 20
1126.847326669612
 30
0.0
 41
1.0
 10
1028.092587677123
 20
1126.766028319677
 30
0.0
 41
1.0
  0
SPLINE
  5
101
330
1F
100
AcDbEntity
  8
Table_Miura_9555-01_2D
100
AcDbSpline
210
0.0
220
0.0
230
1.0
 70
    12
 71
     2
 72
     6
 73
     3
 74
     0
 42
0.0000000001
 43
0.0000000001
 40
-0.5606600998610313
 40
-0.5606600998610313
 40
-0.5606600998610313
 40
0.0
 40
0.0
 40
0.0
 10
1028.092587677123
 20
1126.766028319677
 30
0.0
 41
1.0
 10
1027.894364424123
 20
1126.567805014261
 30
0.0
 41
0.9999999999999912
 10
1027.696141118781
 20
1126.369581761012
 30
0.0
 41
1.0
  0
SPLINE
  5
102
330
1F
100
AcDbEntity
  8
Table_Miura_9555-01_2D
100
AcDbSpline
210
0.0
220
0.0
230
1.0
 70
    12
 71
     5
 72
    12
 73
     6
 74
     0
 42
0.0000000001
 43
0.0000000001
 40
0.0
 40
0.0
 40
0.0
 40
0.0
 40
0.0
 40
0.0
 40
0.8739897245742341
 40
0.8739897245742341
 40
0.8739897245742341
 40
0.8739897245742341
 40
0.8739897245742341
 40
0.8739897245742341
 10
1027.696141118781
 20
1126.369581761012
 30
0.0
 41
1.0
 10
1027.587961268473
 20
1126.261401910667
 30
0.0
 41
1.0
 10
1027.479781418195
 20
1126.153222060332
 30
0.0
 41
1.0
 10
1027.406371689944
 20
1126.026478544117
 30
0.0
 41
1.0
 10
1027.373260656717
 20
1125.886559106198
 30
0.0
 41
1.0
 10
1027.375065494347
 20
1125.743400605549
 30
0.0
 41
1.0
  0
SPLINE
  5
103
330
1F
100
AcDbEntity
  8
Table_Miura_9555-01_2D
100
AcDbSpline
210
0.0
220
0.0
230
1.0
 70
    12
 71
     2
 72
     6
 73
     3
 74
     0
 42
0.0000000001
 43
0.0000000001
 40
0.0
 40
0.0
 40
0.0
 40
0.2017970891503139
 40
0.2017970891503139
 40
0.2017970891503139
 10
1027.375065494347
 20
1125.743400605549
 30
0.0
 41
1.0
 10
1027.376856742652
 20
1125.642012651243
 30
0.0
 41
0.9925431650836243
 10
1027.403127549237
 20
1125.544070982024
 30
0.0
 41
1.0
  0
SPLINE
  5
104
330
1F
100
AcDbEntity
  8
Table_Miura_9555-01_2D
100
AcDbSpline
210
0.0
220
0.0
230
1.0
 70
     8
 71
     3
 72
    12
 73
     8
 74
     0
 42
0.0000000001
 43
0.0000000001
 40
0.0
 40
0.0
 40
0.0
 40
0.0
 40
0.0980656229116343
 40
0.2035418359053462
 40
0.4140500476026759
 40
0.6218932345208526
 40
0.8516964985803365
 40
0.8516964985803365
 40
0.8516964985803365
 40
0.8516964985803365
 10
1027.403127549237
 20
1125.544070982024
 30
0.0
 10
1027.411452929917
 20
1125.512443742946
 30
0.0
 10
1027.432117438256
 20
1125.447791047152
 30
0.0
 10
1027.486906568492
 20
1125.320834758645
 30
0.0
 10
1027.577815493514
 20
1125.171085846284
 30
0.0
 10
1027.719885575369
 20
1125.007174806508
 30
0.0
 10
1027.83404254336
 20
1124.915520819244
 30
0.0
 10
1027.895652856509
 20
1124.869273132896
 30
0.0
  0
SPLINE
  5
105
330
1F
100
AcDbEntity
  8
Table_Miura_9555-01_2D
100
AcDbSpline
210
0.0
220
0.0
230
1.0
 70
     8
 71
     3
 72
    11
 73
     7
 74
     0
 42
0.0000000001
 43
0.0000000001
 40
0.0
 40
0.0
 40
0.0
 40
0.0
 40
2.743424606184174
 40
5.414828345882175
 40
10.77592486299058
 40
21.43397361190056
 40
21.43397361190056
 40
21.43397361190056
 40
21.43397361190056
 10
1027.895652856509
 20
1124.869273132896
 30
0.0
 10
1028.623752185178
 20
1124.315276983561
 30
0.0
 10
1030.105017306332
 20
1123.280822212408
 30
0.0
 10
1033.20824648755
 20
1121.467121878577
 30
0.0
 10
1038.942985356666
 20
1118.979486159701
 30
0.0
 10
1044.273244046187
 20
1118.069612177406
 30
0.0
 10
1047.825795976376
 20
1118.034012036802
 30
0.0
  0
SPLINE
  5
106
330
1F
100
AcDbEntity
  8
Table_Miura_9555-01_2D
100
AcDbSpline
210
0.0
220
0.0
230
1.0
 70
    12
 71
     2
 72
     6
 73
     3
 74
     0
 42
0.0000000001
 43
0.0000000001
 40
0.0
 40
0.0
 40
0.0
 40
0.5724594400308637
 40
0.5724594400308637
 40
0.5724594400308637
 10
1047.825795976376
 20
1118.034012036802
 30
0.0
 41
1.0
 10
1048.112018298119
 20
1118.031127095102
 30
0.0
 41
0.9999625809148067
 10
1048.398247692337
 20
1118.033194518232
 30
0.0
 41
1.0
  0
SPLINE
  5
107
330
1F
100
AcDbEntity
  8
Table_Miura_9555-01_2D
100
AcDbSpline
210
0.0
220
0.0
230
1.0
 70
     8
 71
     3
 72
    12
 73
     8
 74
     0
 42
0.0000000001
 43
0.0000000001
 40
0.0
 40
0.0
 40
0.0
 40
0.0
 40
2.73591608993206
 40
5.43493518296994
 40
10.74089733582064
 40
16.11138166064301
 40
21.52862391160747
 40
21.52862391160747
 40
21.52862391160747
 40
21.52862391160747
 10
1048.398247692337
 20
1118.033194518232
 30
0.0
 10
1049.310208522458
 20
1118.039690726914
 30
0.0
 10
1051.121206153304
 20
1118.127787337741
 30
0.0
 10
1054.674561329784
 20
1118.589013127909
 30
0.0
 10
1059.009654982498
 20
1119.689597565484
 30
0.0
 10
1063.948150689665
 20
1121.828957287576
 30
0.0
 10
1066.985531968032
 20
1123.77561671414
 30
0.0
 10
1068.423035420345
 20
1124.869272287229
 30
0.0
  0
SPLINE
  5
108
330
1F
100
AcDbEntity
  8
Table_Miura_9555-01_2D
100
AcDbSpline
210
0.0
220
0.0
230
1.0
 70
     8
 71
     3
 72
    12
 73
     8
 74
     0
 42
0.0000000001
 43
0.0000000001
 40
0.0
 40
0.0
 40
0.0
 40
0.0
 40
0.198582148184335
 40
0.4558823293423835
 40
1.173126657775418
 40
1.79495840075012
 40
2.266661781302043
 40
2.266661781302043
 40
2.266661781302043
 40
2.266661781302043
 10
1068.423035420345
 20
1124.869272287229
 30
0.0
 10
1068.476253205121
 20
1124.909494079531
 30
0.0
 10
1068.595739069071
 20
1125.003406370128
 30
0.0
 10
1068.896359977904
 20
1125.253534602147
 30
0.0
 10
1069.298268809138
 20
1125.602301788664
 30
0.0
 10
1069.747933503286
 20
1126.005021989066
 30
0.0
 10
1070.01125585225
 20
1126.257166524356
 30
0.0
 10
1070.122209616898
 20
1126.369242623821
 30
0.0
  0
SPLINE
  5
109
330
1F
100
AcDbEntity
  8
Table_Miura_9555-01_2D
100
AcDbSpline
210
0.0
220
0.0
230
1.0
 70
    24
 71
     2
 72
     6
 73
     3
 74
     0
 42
0.0000000001
 43
0.0000000001
 40
0.0
 40
0.0
 40
0.0
 40
0.0000154295494115
 40
0.0000154295494115
 40
0.0000154295494115
 10
1070.122209616898
 20
1126.369242623821
 30
0.0
 10
1070.122045865428
 20
1126.369412053773
 30
0.0
 10
1070.121882113958
 20
1126.369581483726
 30
0.0
  0
SPLINE
  5
10A
330
1F
100
AcDbEntity
  8
Table_Miura_9555-01_2D
100
AcDbSpline
210
0.0
220
0.0
230
1.0
 70
    12
 71
     3
 72
     8
 73
     4
 74
     0
 42
0.0000000001
 43
0.0000000001
 40
-0.2806769686640114
 40
-0.2806769686640114
 40
-0.2806769686640114
 40
-0.2806769686640114
 40
0.0
 40
0.0
 40
0.0
 40
0.0
 10
1070.121882113958
 20
1126.369581483726
 30
0.0
 41
1.0
 10
1070.122344009596
 20
1126.369581760441
 30
0.0
 41
1.0
 10
1070.122566097406
 20
1126.369581761003
 30
0.0
 41
1.0
 10
1070.122548236766
 20
1126.369581760472
 30
0.0
 41
1.0
  0
SPLINE
  5
10B
330
1F
100
AcDbEntity
  8
Table_Miura_9555-01_2D
100
AcDbSpline
210
0.0
220
0.0
230
1.0
 70
    24
 71
     2
 72
     6
 73
     3
 74
     0
 42
0.0000000001
 43
0.0000000001
 40
0.0
 40
0.0
 40
0.0
 40
0.5597389034968172
 40
0.5597389034968172
 40
0.5597389034968172
 10
1070.122548236766
 20
1126.369581760472
 30
0.0
 10
1070.320283041351
 20
1126.567642186004
 30
0.0
 10
1070.518017845936
 20
1126.765702611536
 30
0.0
  0
SPLINE
  5
10C
330
1F
100
AcDbEntity
  8
Table_Miura_9555-01_2D
100
AcDbSpline
210
0.0
220
0.0
230
1.0
 70
    12
 71
     3
 72
     8
 73
     4
 74
     0
 42
0.0000000001
 43
0.0000000001
 40
-0.2809667047186584
 40
-0.2809667047186584
 40
-0.2809667047186584
 40
-0.2809667047186584
 40
0.0
 40
0.0
 40
0.0
 40
0.0
 10
1070.518017845936
 20
1126.765702611536
 30
0.0
 41
1.0
 10
1070.518685135823
 20
1126.766025204818
 30
0.0
 41
1.0
 10
1070.51901099979
 20
1126.766028259468
 30
0.0
 41
1.0
 10
1070.518995199606
 20
1126.766028288669
 30
0.0
 41
1.0
  0
SPLINE
  5
10D
330
1F
100
AcDbEntity
  8
Table_Miura_9555-01_2D
100
AcDbSpline
210
0.0
220
0.0
230
1.0
 70
     8
 71
     3
 72
    13
 73
     9
 74
     0
 42
0.0000000001
 43
0.0000000001
 40
0.0
 40
0.0
 40
0.0
 40
0.0
 40
0.0759172290794612
 40
0.1358047706645862
 40
0.2547108411286943
 40
0.3727728321327626
 40
0.432687484436447
 40
0.5009095124335417
 40
0.5009095124335417
 40
0.5009095124335417
 40
0.5009095124335417
 10
1070.518995199606
 20
1126.766028288669
 30
0.0
 10
1070.536941892889
 20
1126.78381956795
 30
0.0
 10
1070.56866255975
 20
1126.816484653276
 30
0.0
 10
1070.610299964867
 20
1126.891520158171
 30
0.0
 10
1070.613784511752
 20
1126.995703167211
 30
0.0
 10
1070.55219109909
 20
1127.080568731949
 30
0.0
 10
1070.475353194749
 20
1127.113496680912
 30
0.0
 10
1070.432808897637
 20
1127.118273277257
 30
0.0
 10
1070.410032200514
 20
1127.119089124609
 30
0.0
  0
SPLINE
  5
10E
330
1F
100
AcDbEntity
  8
Table_Miura_9555-01_2D
100
AcDbSpline
210
0.0
220
0.0
230
1.0
 70
     8
 71
     3
 72
    13
 73
     9
 74
     0
 42
0.0000000001
 43
0.0000000001
 40
0.0
 40
0.0
 40
0.0
 40
0.0
 40
0.0876034865927682
 40
0.1633834879133184
 40
0.3033602437049218
 40
0.4266564189877515
 40
0.487622525187018
 40
0.5630401513763821
 40
0.5630401513763821
 40
0.5630401513763821
 40
0.5630401513763821
 10
1671.137803498321
 20
1127.120788914829
 30
0.0
 10
1671.108759667761
 20
1127.12005441242
 30
0.0
 10
1671.053864034084
 20
1127.115940885055
 30
0.0
 10
1670.956431390633
 20
1127.089365701007
 30
0.0
 10
1670.858906292879
 20
1127.024124706296
 30
0.0
 10
1670.81713122876
 20
1126.918136385628
 30
0.0
 10
1670.832549144739
 20
1126.830996673999
 30
0.0
 10
1670.852183152262
 20
1126.790268401661
 30
0.0
 10
1670.863625726561
 20
1126.767657801433
 30
0.0
  0
SPLINE
  5
10F
330
1F
100
AcDbEntity
  8
Table_Miura_9555-01_2D
100
AcDbSpline
210
0.0
220
0.0
230
1.0
 70
    24
 71
     2
 72
     6
 73
     3
 74
     0
 42
0.0000000001
 43
0.0000000001
 40
0.0
 40
0.0
 40
0.0
 40
0.443128027777323
 40
0.443128027777323
 40
0.443128027777323
 10
1670.863625726561
 20
1126.767657801433
 30
0.0
 10
1670.962744443377
 20
1126.56941917715
 30
0.0
 10
1671.061863160192
 20
1126.371180552867
 30
0.0
  0
SPLINE
  5
110
330
1F
100
AcDbEntity
  8
Table_Miura_9555-01_2D
100
AcDbSpline
210
0.0
220
0.0
230
1.0
 70
     8
 71
     3
 72
    14
 73
    10
 74
     0
 42
0.0000000001
 43
0.0000000001
 40
0.0
 40
0.0
 40
0.0
 40
0.0
 40
0.1878442759905428
 40
0.377592525096296
 40
0.6122387701456025
 40
0.8889786116689306
 40
1.581028401171428
 40
1.879577165562933
 40
2.132521340345824
 40
2.132521340345824
 40
2.132521340345824
 40
2.132521340345824
 10
1671.061863160192
 20
1126.371180552867
 30
0.0
 10
1671.089461338696
 20
1126.314931116053
 30
0.0
 10
1671.148712184932
 20
1126.203540895784
 30
0.0
 10
1671.267077832485
 20
1126.03696567973
 30
0.0
 10
1671.417806476319
 20
1125.858171569938
 30
0.0
 10
1671.695127971946
 20
1125.568145341442
 30
0.0
 10
1672.007021944388
 20
1125.282647762945
 30
0.0
 10
1672.329318468872
 20
1125.021809181937
 30
0.0
 10
1672.480322312428
 20
1124.916664336881
 30
0.0
 10
1672.551453775957
 20
1124.871214084897
 30
0.0
  0
SPLINE
  5
111
330
1F
100
AcDbEntity
  8
Table_Miura_9555-01_2D
100
AcDbSpline
210
0.0
220
0.0
230
1.0
 70
     8
 71
     3
 72
    11
 73
     7
 74
     0
 42
0.0000000001
 43
0.0000000001
 40
0.0
 40
0.0
 40
0.0
 40
0.0
 40
3.125176035128538
 40
6.095599655767289
 40
12.14563159808566
 40
24.32538406836998
 40
24.32538406836998
 40
24.32538406836998
 40
24.32538406836998
 10
1672.551453775957
 20
1124.871214084897
 30
0.0
 10
1673.42489609492
 20
1124.303417240475
 30
0.0
 10
1675.169073609208
 20
1123.258128954631
 30
0.0
 10
1678.783896725587
 20
1121.430062913121
 30
0.0
 10
1685.41042586827
 20
1118.921975215683
 30
0.0
 10
1691.486041883009
 20
1118.033653698759
 30
0.0
 10
1695.546087294097
 20
1118.034012036802
 30
0.0
  0
SPLINE
  5
112
330
1F
100
AcDbEntity
  8
Table_Miura_9555-01_2D
100
AcDbSpline
210
0.0
220
0.0
230
1.0
 70
     8
 71
     3
 72
    12
 73
     8
 74
     0
 42
0.0000000001
 43
0.0000000001
 40
0.0
 40
0.0
 40
0.0
 40
0.0
 40
3.067510030199397
 40
6.111020822346612
 40
12.08884398209748
 40
18.2299956540746
 40
24.32566676622235
 40
24.32566676622235
 40
24.32566676622235
 40
24.32566676622235
 10
1695.546087294097
 20
1118.034012036802
 30
0.0
 10
1696.568597440207
 20
1118.033947775153
 30
0.0
 10
1698.605569086801
 20
1118.109137368176
 30
0.0
 10
1702.613775734294
 20
1118.548530666989
 30
0.0
 10
1707.562563601061
 20
1119.636694443952
 30
0.0
 10
1713.258710422161
 20
1121.784656528409
 30
0.0
 10
1716.837311112584
 20
1123.763873835575
 30
0.0
 10
1718.540896802071
 20
1124.871262944703
 30
0.0
  0
SPLINE
  5
113
330
1F
100
AcDbEntity
  8
Table_Miura_9555-01_2D
100
AcDbSpline
210
0.0
220
0.0
230
1.0
 70
     8
 71
     3
 72
    16
 73
    12
 74
     0
 42
0.0000000001
 43
0.0000000001
 40
0.0
 40
0.0
 40
0.0
 40
0.0
 40
0.1493864394124331
 40
0.279355901656456
 40
0.5550513490148505
 40
0.8392020165335361
 40
1.095708427849607
 40
1.300439052038602
 40
1.480820944991986
 40
1.644774875639234
 40
1.839449949945526
 40
1.839449949945526
 40
1.839449949945526
 40
1.839449949945526
 10
1718.540896802071
 20
1124.871262944703
 30
0.0
 10
1718.582697925822
 20
1124.898337300447
 30
0.0
 10
1718.660417968902
 20
1124.949703109784
 30
0.0
 10
1718.807236441784
 20
1125.062504821737
 30
0.0
 10
1718.974661091871
 20
1125.220799431977
 30
0.0
 10
1719.148289732783
 20
1125.43098996627
 30
0.0
 10
1719.27933860048
 20
1125.642990886375
 30
0.0
 10
1719.359293558971
 20
1125.842330048759
 30
0.0
 10
1719.387862816192
 20
1126.024785171098
 30
0.0
 10
1719.361948613388
 20
1126.20476369933
 30
0.0
 10
1719.309517180899
 20
1126.313481240791
 30
0.0
 10
1719.280360501974
 20
1126.371254312851
 30
0.0
  0
SPLINE
  5
114
330
1F
100
AcDbEntity
  8
Table_Miura_9555-01_2D
100
AcDbSpline
210
0.0
220
0.0
230
1.0
 70
    24
 71
     2
 72
     6
 73
     3
 74
     0
 42
0.0000000001
 43
0.0000000001
 40
0.0
 40
0.0
 40
0.0
 40
0.4432407273142657
 40
0.4432407273142657
 40
0.4432407273142657
 10
1719.280360501974
 20
1126.371254312851
 30
0.0
 10
1719.181240341233
 20
1126.569493855698
 30
0.0
 10
1719.082120180492
 20
1126.767733398545
 30
0.0
  0
SPLINE
  5
115
330
1F
100
AcDbEntity
  8
Table_Miura_9555-01_2D
100
AcDbSpline
210
0.0
220
0.0
230
1.0
 70
     8
 71
     3
 72
    12
 73
     8
 74
     0
 42
0.0000000001
 43
0.0000000001
 40
0.0
 40
0.0
 40
0.0
 40
0.0
 40
0.0783339057735422
 40
0.1543752911000592
 40
0.3458434999895036
 40
0.5566067183729958
 40
0.745730808072604
 40
0.745730808072604
 40
0.745730808072604
 40
0.745730808072604
 10
1719.082120180492
 20
1126.767733398545
 30
0.0
 10
1719.070685947797
 20
1126.791175082117
 30
0.0
 10
1719.046066057761
 20
1126.836658193142
 30
0.0
 10
1718.969128417233
 20
1126.923501970601
 30
0.0
 10
1718.837177071837
 20
1127.0148711285
 30
0.0
 10
1718.656133584581
 20
1127.095131850353
 30
0.0
 10
1718.5237602211
 20
1127.119014598228
 30
0.0
 10
1718.460707563553
 20
1127.120585505345
 30
0.0
  0
SPLINE
  5
116
330
1F
100
AcDbEntity
  8
Table_Miura_9555-01_2D
100
AcDbSpline
210
0.0
220
0.0
230
1.0
 70
    12
 71
     2
 72
     6
 73
     3
 74
     0
 42
0.0000000001
 43
0.0000000001
 40
0.0
 40
0.0
 40
0.0
 40
1.347660071043663
 40
1.347660071043663
 40
1.347660071043663
 10
1455.399397356405
 20
1588.65647007443
 30
0.0
 41
1.0
 10
1454.620884296835
 20
1588.478951099463
 30
0.0
 41
0.7814532184921709
 10
1454.621681559739
 20
1587.680455680015
 30
0.0
 41
1.0
  0
SPLINE
  5
117
330
1F
100
AcDbEntity
  8
Table_Miura_9555-01_2D
100
AcDbSpline
210
0.0
220
0.0
230
1.0
 70
     8
 71
     3
 72
    13
 73
     9
 74
     0
 42
0.0000000001
 43
0.0000000001
 40
0.0
 40
0.0
 40
0.0
 40
0.0
 40
3.162722799211981
 40
5.963232700855801
 40
11.82659241116913
 40
23.58923876696889
 40
35.36859962543459
 40
47.14230545140192
 40
47.14230545140192
 40
47.14230545140192
 40
47.14230545140192
 10
1454.621681559739
 20
1587.680455680015
 30
0.0
 10
1454.623885793781
 20
1586.626286853637
 30
0.0
 10
1454.615166299304
 20
1584.638157551322
 30
0.0
 10
1454.440055361331
 20
1580.699218065604
 30
0.0
 10
1453.772645737854
 20
1573.918600119259
 30
0.0
 10
1451.739159743831
 20
1564.302907399905
 30
0.0
 10
1447.630566348222
 20
1553.237219450022
 30
0.0
 10
1443.837491816247
 20
1546.338930012783
 30
0.0
 10
1441.698805961072
 20
1543.048316930813
 30
0.0
  0
SPLINE
  5
118
330
1F
100
AcDbEntity
  8
Table_Miura_9555-01_2D
100
AcDbSpline
210
0.0
220
0.0
230
1.0
 70
     8
 71
     5
 72
    12
 73
     6
 74
     0
 42
0.0000000001
 43
0.0000000001
 40
0.0
 40
0.0
 40
0.0
 40
0.0
 40
0.0
 40
0.0
 40
1.0
 40
1.0
 40
1.0
 40
1.0
 40
1.0
 40
1.0
 10
1441.698805961072
 20
1543.048316930813
 30
0.0
 10
1440.380679883549
 20
1541.020229026325
 30
0.0
 10
1438.985754323662
 20
1539.042055822388
 30
0.0
 10
1437.503543496082
 20
1537.114097764787
 30
0.0
 10
1435.971954568973
 20
1535.238914281405
 30
0.0
 10
1434.360460577366
 20
1533.435117169867
 30
0.0
  0
SPLINE
  5
119
330
1F
100
AcDbEntity
  8
Table_Miura_9555-01_2D
100
AcDbSpline
210
0.0
220
0.0
230
1.0
 70
     8
 71
     3
 72
    14
 73
    10
 74
     0
 42
0.0000000001
 43
0.0000000001
 40
0.0
 40
0.0
 40
0.0
 40
0.0
 40
0.9891480038174151
 40
2.048682505589698
 40
4.284630339927826
 40
5.914186096750434
 40
6.608070935285521
 40
9.47879807401191
 40
12.82201302314979
 40
12.82201302314979
 40
12.82201302314979
 40
12.82201302314979
 10
1434.360460577366
 20
1533.435117169867
 30
0.0
 10
1434.140790418329
 20
1533.189233287939
 30
0.0
 10
1433.682136230306
 20
1532.683274298971
 30
0.0
 10
1432.709979347996
 20
1531.636954016439
 30
0.0
 10
1431.572152777279
 20
1530.453422221445
 30
0.0
 10
1430.501500216566
 20
1529.374740357382
 30
0.0
 10
1429.27459075317
 20
1528.15310497007
 30
0.0
 10
1427.638396958838
 20
1526.532943323877
 30
0.0
 10
1426.178066317376
 20
1525.063979334218
 30
0.0
 10
1425.390228980436
 20
1524.275815289027
 30
0.0
  0
LINE
  5
11A
330
1F
100
AcDbEntity
  8
Table_Miura_9555-01_2D
100
AcDbLine
 10
1425.390228980436
 20
1524.275815289027
 30
0.0
 11
1028.234005271152
 21
1127.119585354494
 31
0.0
  0
POLYLINE
  5
11B
330
1F
100
AcDbEntity
  8
Table_Miura_9555-01_2D
100
AcDb2dPolyline
 66
     1
 10
0.0
 20
0.0
 30
0.0
  0
VERTEX
  5
11C
330
11B
100
AcDbEntity
  8
Table_Miura_9555-01_2D
100
AcDbVertex
100
AcDb2dVertex
 10
1028.234005271152
 20
1127.119585354494
 30
0.0
  0
VERTEX
  5
11D
330
11B
100
AcDbEntity
  8
Table_Miura_9555-01_2D
100
AcDbVertex
100
AcDb2dVertex
 10
1070.87254812432
 20
1127.119581763347
 30
0.0
  0
SEQEND
  5
11E
330
11B
100
AcDbEntity
  8
Table_Miura_9555-01_2D
  0
LINE
  5
11F
330
1F
100
AcDbEntity
  8
Table_Miura_9555-01_2D
100
AcDbLine
 10
1070.87254812432
 20
1127.119581763347
 30
0.0
 11
1446.709476072569
 21
1502.956568214591
 31
0.0
  0
SPLINE
  5
120
330
1F
100
AcDbEntity
  8
Table_Miura_9555-01_2D
100
AcDbSpline
210
0.0
220
0.0
230
1.0
 70
     8
 71
     3
 72
     9
 73
     5
 74
     0
 42
0.0000000001
 43
0.0000000001
 40
-25.59720475510172
 40
-25.59720475510172
 40
-25.59720475510172
 40
-25.59720475510172
 40
-23.041181434814
 40
-22.35224480279041
 40
-22.35224480279041
 40
-22.35224480279041
 40
-22.35224480279041
 10
1446.709476072569
 20
1502.956568214591
 30
0.0
 10
1447.316497826278
 20
1503.554326543237
 30
0.0
 10
1448.090451212184
 20
1504.310288982319
 30
0.0
 10
1448.883883932196
 20
1505.045417679923
 30
0.0
 10
1449.053164481852
 20
1505.200592515056
 30
0.0
  0
SPLINE
  5
121
330
1F
100
AcDbEntity
  8
Table_Miura_9555-01_2D
100
AcDbSpline
210
0.0
220
0.0
230
1.0
 70
     8
 71
     3
 72
     9
 73
     5
 74
     0
 42
0.0000000001
 43
0.0000000001
 40
-22.35224480279041
 40
-22.35224480279041
 40
-22.35224480279041
 40
-22.35224480279041
 40
-20.7744918917307
 40
-0.3474546757883366
 40
-0.3474546757883366
 40
-0.3474546757883366
 40
-0.3474546757883366
 10
1449.053164481852
 20
1505.200592515056
 30
0.0
 10
1449.440598794247
 20
1505.555742918767
 30
0.0
 10
1454.936607485577
 20
1510.395762657294
 30
0.0
 10
1460.246270862394
 20
1516.027167448168
 30
0.0
 10
1466.600996536427
 20
1518.468139927857
 30
0.0
  0
SPLINE
  5
122
330
1F
100
AcDbEntity
  8
Table_Miura_9555-01_2D
100
AcDbSpline
210
0.0
220
0.0
230
1.0
 70
     8
 71
     3
 72
     9
 73
     5
 74
     0
 42
0.0000000001
 43
0.0000000001
 40
-0.3474546757883366
 40
-0.3474546757883366
 40
-0.3474546757883366
 40
-0.3474546757883366
 40
0.9942450456762122
 40
2.821104559269469
 40
2.821104559269469
 40
2.821104559269469
 40
2.821104559269469
 10
1466.600996536427
 20
1518.468139927857
 30
0.0
 10
1467.018418380368
 20
1518.628479694788
 30
0.0
 10
1468.033625615936
 20
1518.93028107352
 30
0.0
 10
1469.100586157144
 20
1519.071588347227
 30
0.0
 10
1469.708291368976
 20
1519.107955847091
 30
0.0
  0
SPLINE
  5
123
330
1F
100
AcDbEntity
  8
Table_Miura_9555-01_2D
100
AcDbSpline
210
0.0
220
0.0
230
1.0
 70
    12
 71
     2
 72
     6
 73
     3
 74
     0
 42
0.0000000001
 43
0.0000000001
 40
0.0
 40
0.0
 40
0.0
 40
0.4549953359630086
 40
0.4549953359630086
 40
0.4549953359630086
 10
1469.708291368976
 20
1519.107955847091
 30
0.0
 41
1.0
 10
1469.939384044819
 20
1519.121785353065
 30
0.0
 41
0.9742292604962512
 10
1470.140883964531
 20
1519.23577159092
 30
0.0
 41
1.0
  0
SPLINE
  5
124
330
1F
100
AcDbEntity
  8
Table_Miura_9555-01_2D
100
AcDbSpline
210
0.0
220
0.0
230
1.0
 70
    12
 71
     2
 72
     6
 73
     3
 74
     0
 42
0.0000000001
 43
0.0000000001
 40
0.0
 40
0.0
 40
0.0
 40
1.517675704074519
 40
1.517675704074519
 40
1.517675704074519
 10
1468.483179174149
 20
1583.655950085267
 30
0.0
 41
1.0
 10
1467.534926978641
 20
1583.624808857629
 30
0.0
 41
0.7256366645658146
 10
1467.515465711362
 20
1582.676767155084
 30
0.0
 41
1.0
  0
SPLINE
  5
125
330
1F
100
AcDbEntity
  8
Table_Miura_9555-01_2D
100
AcDbSpline
210
0.0
220
0.0
230
1.0
 70
    12
 71
     2
 72
     6
 73
     3
 74
     0
 42
0.0000000001
 43
0.0000000001
 40
0.0
 40
0.0
 40
0.0
 40
4.338894157400503
 40
4.338894157400503
 40
4.338894157400503
 10
1467.515465711362
 20
1582.676767155084
 30
0.0
 41
1.0
 10
1467.47088567524
 20
1580.505082611693
 30
0.0
 41
0.9999577101164851
 10
1467.386280470878
 20
1578.337224686362
 30
0.0
 41
1.0
  0
SPLINE
  5
126
330
1F
100
AcDbEntity
  8
Table_Miura_9555-01_2D
100
AcDbSpline
210
0.0
220
0.0
230
1.0
 70
     8
 71
     3
 72
    13
 73
     9
 74
     0
 42
0.0000000001
 43
0.0000000001
 40
0.0
 40
0.0
 40
0.0
 40
0.0
 40
1.195776873000196
 40
2.341423735031693
 40
4.878196780698156
 40
8.059055609734553
 40
9.89647813407859
 40
11.23169972175378
 40
11.23169972175378
 40
11.23169972175378
 40
11.23169972175378
 10
1467.386280470878
 20
1578.337224686362
 30
0.0
 10
1467.370736398877
 20
1577.938935480228
 30
0.0
 10
1467.338808486986
 20
1577.159112975093
 30
0.0
 10
1467.26506609287
 20
1575.534715103821
 30
0.0
 10
1467.146443437947
 20
1573.250016443466
 30
0.0
 10
1466.998884465633
 20
1570.735981860076
 30
0.0
 10
1466.868442771395
 20
1568.622168996523
 30
0.0
 10
1466.800537489546
 20
1567.561739422185
 30
0.0
 10
1466.770636462097
 20
1567.11767067197
 30
0.0
  0
SPLINE
  5
127
330
1F
100
AcDbEntity
  8
Table_Miura_9555-01_2D
100
AcDbSpline
210
0.0
220
0.0
230
1.0
 70
     8
 71
     3
 72
    46
 73
    42
 74
     0
 42
0.0000000001
 43
0.0000000001
 40
0.0
 40
0.0
 40
0.0
 40
0.0
 40
4.445528572919531
 40
9.136184748431084
 40
13.56629843505467
 40
20.52288534708523
 40
22.80023416032957
 40
26.47397545349463
 40
30.12593374789432
 40
33.12390876023884
 40
33.12390876023884
 40
33.12390876023884
 40
33.44213680694137
 40
33.79291129403629
 40
34.65617602833069
 40
35.95951821029372
 40
35.95951821029372
 40
35.95951821029372
 40
37.26413056451781
 40
38.4014712048069
 40
40.57038699906814
 40
42.7593198436251
 40
44.84110739718989
 40
45.77561526079327
 40
46.65453737284929
 40
47.46896338621528
 40
48.21895529454341
 40
48.90499283523491
 40
49.56381445895246
 40
50.22094840567009
 40
51.02557524063457
 40
51.02557524063457
 40
51.02557524063457
 40
56.82679662646954
 40
56.82679662646954
 40
56.82679662646954
 40
57.82809886771776
 40
58.78296253335561
 40
60.89975999567615
 40
62.90994723231162
 40
65.188593675824
 40
65.188593675824
 40
65.188593675824
 40
65.188593675824
 10
1466.770636462097
 20
1567.11767067197
 30
0.0
 10
1466.671083198673
 20
1565.639176551814
 30
0.0
 10
1466.451331833172
 20
1562.601683697518
 30
0.0
 10
1466.084432176743
 20
1558.094457290125
 30
0.0
 10
1465.613479925122
 20
1552.756049737787
 30
0.0
 10
1465.189340136276
 20
1548.221150520041
 30
0.0
 10
1464.799652057324
 20
1543.936270500567
 30
0.0
 10
1464.52361827367
 20
1540.74716460268
 30
0.0
 10
1464.266066647695
 20
1537.315476973145
 30
0.0
 10
1464.144355659188
 20
1535.098694766637
 30
0.0
 10
1464.106118961779
 20
1534.100088372069
 30
0.0
 10
1464.102060313752
 20
1533.994090936409
 30
0.0
 10
1464.093976673718
 20
1533.771233424917
 30
0.0
 10
1464.07906253332
 20
1533.260696385191
 30
0.0
 10
1464.05789726145
 20
1532.421828490657
 30
0.0
 10
1464.049295053882
 20
1531.699647925701
 30
0.0
 10
1464.049337591336
 20
1531.265193560532
 30
0.0
 10
1464.04894927227
 20
1530.830356939197
 30
0.0
 10
1464.059391082701
 20
1530.016179508716
 30
0.0
 10
1464.156999383602
 20
1528.481842925351
 30
0.0
 10
1464.437263981615
 20
1526.667972837712
 30
0.0
 10
1465.037308094634
 20
1524.602267272168
 30
0.0
 10
1465.742304886483
 20
1523.011860806362
 30
0.0
 10
1466.409445598121
 20
1521.896249537298
 30
0.0
 10
1466.925645706537
 20
1521.187464983615
 30
0.0
 10
1467.471941987919
 20
1520.581578837888
 30
0.0
 10
1468.040452708232
 20
1520.089633573109
 30
0.0
 10
1468.629117075337
 20
1519.710531909284
 30
0.0
 10
1469.240922137368
 20
1519.438749587886
 30
0.0
 10
1469.925613043445
 20
1519.255434374461
 30
0.0
 10
1470.41025865969
 20
1519.196654183806
 30
0.0
 10
1470.676684488608
 20
1519.167258415544
 30
0.0
 10
1472.599384974454
 20
1518.953262142753
 30
0.0
 10
1474.809636640131
 20
1518.055618567565
 30
0.0
 10
1475.759807569515
 20
1516.371542224003
 30
0.0
 10
1475.923462836838
 20
1516.080652040608
 30
0.0
 10
1476.242391465281
 20
1515.511911065328
 30
0.0
 10
1476.897049419604
 20
1514.322508214594
 30
0.0
 10
1477.699223551478
 20
1512.830505705165
 30
0.0
 10
1478.691248941989
 20
1510.939702013475
 30
0.0
 10
1479.37351144151
 20
1509.604438802626
 30
0.0
 10
1479.713188906521
 20
1508.925083872179
 30
0.0
  0
LINE
  5
128
330
1F
100
AcDbEntity
  8
Table_Miura_9555-01_2D
100
AcDbLine
 10
1479.713188906521
 20
1508.925083872179
 30
0.0
 11
1670.615258914714
 21
1127.120943616997
 31
0.0
  0
LINE
  5
129
330
1F
100
AcDbEntity
  8
Table_Miura_9555-01_2D
100
AcDbLine
 10
1670.615258914714
 20
1127.120943616997
 30
0.0
 11
1719.083183272226
 21
1127.121407223837
 31
0.0
  0
LINE
  5
12A
330
1F
100
AcDbEntity
  8
Table_Miura_9555-01_2D
100
AcDbLine
 10
1719.083183272226
 20
1127.121407223837
 30
0.0
 11
1523.490816980453
 21
1518.306140052048
 31
0.0
  0
SPLINE
  5
12B
330
1F
100
AcDbEntity
  8
Table_Miura_9555-01_2D
100
AcDbSpline
210
0.0
220
0.0
230
1.0
 70
     8
 71
     3
 72
    15
 73
    11
 74
     0
 42
0.0000000001
 43
0.0000000001
 40
0.0
 40
0.0
 40
0.0
 40
0.0
 40
2.804057442577903
 40
5.813535061115351
 40
7.520094063378131
 40
12.01795169840552
 40
16.91927281030366
 40
18.14949344777262
 40
19.34253087904432
 40
21.65307934478401
 40
21.65307934478401
 40
21.65307934478401
 40
21.65307934478401
 10
1523.490816980453
 20
1518.306140052048
 30
0.0
 10
1523.072815134132
 20
1519.142143745213
 30
0.0
 10
1522.171486715041
 20
1520.951223820878
 30
0.0
 10
1521.046008695385
 20
1523.191037519104
 30
0.0
 10
1519.678529141504
 20
1525.941138335532
 30
0.0
 10
1518.06956394944
 20
1529.275238771979
 30
0.0
 10
1516.589563072489
 20
1532.49470174233
 30
0.0
 10
1515.603260094863
 20
1534.72814828076
 30
0.0
 10
1514.971026613592
 20
1536.173922140232
 30
0.0
 10
1514.521245809498
 20
1537.251741228795
 30
0.0
 10
1514.221431586752
 20
1537.961164742055
 30
0.0
  0
SPLINE
  5
12C
330
1F
100
AcDbEntity
  8
Table_Miura_9555-01_2D
100
AcDbSpline
210
0.0
220
0.0
230
1.0
 70
    12
 71
     3
 72
    26
 73
    22
 74
     0
 42
0.0000000001
 43
0.0000000001
 40
-45.87114236150764
 40
-45.87114236150764
 40
-45.87114236150764
 40
-45.87114236150764
 40
-43.7482714319039
 40
-41.95073232195075
 40
-37.96290779321185
 40
-29.2091905711187
 40
-19.77032179938261
 40
-14.83888187793954
 40
-9.836376581035709
 40
-9.836376581035709
 40
-9.836376581035709
 40
-9.16749384238369
 40
-7.554830330056148
 40
-5.942166817728606
 40
-4.329503305401064
 40
-4.329503305401064
 40
-4.329503305401064
 40
0.0
 40
0.0
 40
0.0
 40
1.489429492300063
 40
1.489429492300063
 40
1.489429492300063
 40
1.489429492300063
 10
1514.221431586752
 20
1537.961164742055
 30
0.0
 41
1.0
 10
1513.945987198448
 20
1538.61292410113
 30
0.0
 41
1.0
 10
1513.413977585643
 20
1539.869618205213
 30
0.0
 41
1.0
 10
1512.453720194934
 20
1542.324646511452
 30
0.0
 41
1.0
 10
1510.853374943954
 20
1546.90085610837
 30
0.0
 41
1.0
 10
1508.86479696172
 20
1554.027545011124
 30
0.0
 41
1.0
 10
1507.323340243073
 20
1561.584088708599
 30
0.0
 41
1.0
 10
1506.327414238686
 20
1567.965062061246
 30
0.0
 41
1.0
 10
1505.916645988534
 20
1571.251259190685
 30
0.0
 41
1.0
 10
1505.733805146918
 20
1572.90867587846
 30
0.0
 41
1.0
 10
1505.709412386571
 20
1573.129791509425
 30
0.0
 41
1.0
 10
1505.627355172882
 20
1573.884088989374
 30
0.0
 41
1.0
 10
1505.494426620376
 20
1575.17140788037
 30
0.0
 41
1.0
 10
1505.342493112472
 20
1576.773160695335
 30
0.0
 41
1.0
 10
1505.252541317901
 20
1577.84132874183
 30
0.0
 41
1.0
 10
1505.210805675632
 20
1578.375752000038
 30
0.0
 41
1.0
 10
1505.098437665195
 20
1579.814619955382
 30
0.0
 41
0.9998874918685951
 10
1505.012522150434
 20
1581.255309403878
 30
0.0
 41
0.9998874918685951
 10
1504.95308812993
 20
1582.697334077694
 30
0.0
 41
1.0
 10
1504.930491213321
 20
1583.245594333805
 30
0.0
 41
0.8233637531700498
 10
1504.542432436359
 20
1583.633550922478
 30
0.0
 41
0.8233637531700498
 10
1503.994547536783
 20
1583.655622256444
 30
0.0
 41
1.0
  0
LINE
  5
12D
330
1F
100
AcDbEntity
  8
Table_Miura_9555-01_2D
100
AcDbLine
 10
3309.728295568509
 20
1127.120604536889
 30
0.0
 11
2984.631046410581
 21
1502.510573399947
 31
0.0
  0
LINE
  5
12E
330
1F
100
AcDbEntity
  8
Table_Miura_9555-01_2D
100
AcDbLine
 10
3012.065661896921
 20
1522.410149325161
 30
0.0
 11
3354.396729680572
 21
1127.120280804199
 31
0.0
  0
LINE
  5
12F
330
1F
100
AcDbEntity
  8
Table_Miura_9555-01_2D
100
AcDbLine
 10
2934.371944128212
 20
1513.612996737426
 30
0.0
 11
2934.371944128212
 21
1127.12126169396
 31
0.0
  0
LINE
  5
130
330
1F
100
AcDbEntity
  8
Table_Miura_9555-01_2D
100
AcDbLine
 10
2984.631046410581
 20
1127.12126169396
 30
0.0
 11
2984.631046410581
 21
1513.612996737426
 31
0.0
  0
LINE
  5
131
330
1F
100
AcDbEntity
  8
Table_Miura_9555-01_2D
100
AcDbLine
 10
2906.937328641874
 20
1522.410149325161
 30
0.0
 11
2564.604193793876
 21
1127.117893963885
 31
0.0
  0
LINE
  5
132
330
1F
100
AcDbEntity
  8
Table_Miura_9555-01_2D
100
AcDbLine
 10
2609.272627905939
 20
1127.118217696574
 30
0.0
 11
2934.371944128212
 21
1502.510573399947
 31
0.0
  0
SPLINE
  5
133
330
1F
100
AcDbEntity
  8
Table_Miura_9555-01_2D
100
AcDbSpline
210
0.0
220
0.0
230
1.0
 70
     8
 71
     3
 72
    12
 73
     8
 74
     0
 42
0.0000000001
 43
0.0000000001
 40
0.0
 40
0.0
 40
0.0
 40
0.0
 40
0.089002379783791
 40
0.1797960093880787
 40
0.4111935266141908
 40
0.6556287843907624
 40
0.8529822444616081
 40
0.8529822444616081
 40
0.8529822444616081
 40
0.8529822444616081
 10
3354.496534500749
 20
1126.767854474997
 30
0.0
 10
3354.477222538915
 20
1126.79058227985
 30
0.0
 10
3354.436428861659
 20
1126.834710339839
 30
0.0
 10
3354.327752220461
 20
1126.918962857341
 30
0.0
 10
3354.161231038426
 20
1127.009220035952
 30
0.0
 10
3353.951724056904
 20
1127.091020384956
 30
0.0
 10
3353.806204694997
 20
1127.118869233439
 30
0.0
 10
3353.740314446025
 20
1127.12065296471
 30
0.0
  0
SPLINE
  5
134
330
1F
100
AcDbEntity
  8
Table_Miura_9555-01_2D
100
AcDbSpline
210
0.0
220
0.0
230
1.0
 70
    24
 71
     2
 72
     6
 73
     3
 74
     0
 42
0.0000000001
 43
0.0000000001
 40
0.0
 40
0.0
 40
0.0
 40
0.5244495011186677
 40
0.5244495011186677
 40
0.5244495011186677
 10
3354.840031232078
 20
1126.371217114359
 30
0.0
 10
3354.668282866413
 20
1126.569535794678
 30
0.0
 10
3354.496534500749
 20
1126.767854474997
 30
0.0
  0
SPLINE
  5
135
330
1F
100
AcDbEntity
  8
Table_Miura_9555-01_2D
100
AcDbSpline
210
0.0
220
0.0
230
1.0
 70
     8
 71
     3
 72
    16
 73
    12
 74
     0
 42
0.0000000001
 43
0.0000000001
 40
0.0
 40
0.0
 40
0.0
 40
0.0
 40
0.1449268675943032
 40
0.2673386247060248
 40
0.5163843678365243
 40
0.7646474073394522
 40
0.9969847930951104
 40
1.194773719318494
 40
1.376962800151374
 40
1.556234553971886
 40
1.789638013214851
 40
1.789638013214851
 40
1.789638013214851
 40
1.789638013214851
 10
3354.479296608838
 20
1124.87129581566
 30
0.0
 10
3354.518671369362
 20
1124.89938752593
 30
0.0
 10
3354.590782093366
 20
1124.951826067473
 30
0.0
 10
3354.721353639857
 20
1125.064247459638
 30
0.0
 10
3354.859743578495
 20
1125.218600820227
 30
0.0
 10
3354.989603826041
 20
1125.425360855246
 30
0.0
 10
3355.071743259678
 20
1125.637409242976
 30
0.0
 10
3355.098727876053
 20
1125.841494058146
 30
0.0
 10
3355.069359068077
 20
1126.027814554777
 30
0.0
 10
3354.980824518565
 20
1126.207377801485
 30
0.0
 10
3354.891058753475
 20
1126.312510267092
 30
0.0
 10
3354.840031232078
 20
1126.371217114359
 30
0.0
  0
SPLINE
  5
136
330
1F
100
AcDbEntity
  8
Table_Miura_9555-01_2D
100
AcDbSpline
210
0.0
220
0.0
230
1.0
 70
     8
 71
     3
 72
    12
 73
     8
 74
     0
 42
0.0000000001
 43
0.0000000001
 40
0.0
 40
0.0
 40
0.0
 40
0.0
 40
2.782398956976483
 40
5.60255636646087
 40
11.31396921066574
 40
16.96595331393149
 40
22.64829073387322
 40
22.64829073387322
 40
22.64829073387322
 40
22.64829073387322
 10
3333.269001682133
 20
1118.034012036802
 30
0.0
 10
3334.196473848589
 20
1118.033958066606
 30
0.0
 10
3336.063955757735
 20
1118.106599852756
 30
0.0
 10
3339.81284722576
 20
1118.542317132827
 30
0.0
 10
3344.427021927351
 20
1119.638566298546
 30
0.0
 10
3349.698242623805
 20
1121.804987016155
 30
0.0
 10
3352.939028249148
 20
1123.768896237656
 30
0.0
 10
3354.479296608838
 20
1124.87129581566
 30
0.0
  0
SPLINE
  5
137
330
1F
100
AcDbEntity
  8
Table_Miura_9555-01_2D
100
AcDbSpline
210
0.0
220
0.0
230
1.0
 70
     8
 71
     5
 72
    12
 73
     6
 74
     0
 42
0.0000000001
 43
0.0000000001
 40
-1.0
 40
-1.0
 40
-1.0
 40
-1.0
 40
-1.0
 40
-1.0
 40
0.0
 40
0.0
 40
0.0
 40
0.0
 40
0.0
 40
0.0
 10
3332.855129214401
 20
1118.036398877116
 30
0.0
 10
3332.937899438501
 20
1118.0354320966
 30
0.0
 10
3333.02067242553
 20
1118.034701862233
 30
0.0
 10
3333.103449956272
 20
1118.034261494769
 30
0.0
 10
3333.186225812225
 20
1118.034016853583
 30
0.0
 10
3333.269001682133
 20
1118.034012036802
 30
0.0
  0
SPLINE
  5
138
330
1F
100
AcDbEntity
  8
Table_Miura_9555-01_2D
100
AcDbSpline
210
0.0
220
0.0
230
1.0
 70
     8
 71
     3
 72
    12
 73
     8
 74
     0
 42
0.0000000001
 43
0.0000000001
 40
0.0
 40
0.0
 40
0.0
 40
0.0
 40
2.849423647238892
 40
5.573258475154478
 40
11.17057419198277
 40
16.6544972940824
 40
22.23406149512204
 40
22.23406149512204
 40
22.23406149512204
 40
22.23406149512204
 10
3312.059067181528
 20
1124.871237711682
 30
0.0
 10
3312.831297949307
 20
1124.318149955731
 30
0.0
 10
3314.383759917319
 20
1123.295284086388
 30
0.0
 10
3317.640193862333
 20
1121.484493486656
 30
0.0
 10
3321.902519598146
 20
1119.714166126517
 30
0.0
 10
3327.311168667474
 20
1118.385334809451
 30
0.0
 10
3330.995409632484
 20
1118.058120947778
 30
0.0
 10
3332.855129214401
 20
1118.036398877116
 30
0.0
  0
SPLINE
  5
139
330
1F
100
AcDbEntity
  8
Table_Miura_9555-01_2D
100
AcDbSpline
210
0.0
220
0.0
230
1.0
 70
     8
 71
     3
 72
    12
 73
     8
 74
     0
 42
0.0000000001
 43
0.0000000001
 40
0.0
 40
0.0
 40
0.0
 40
0.0
 40
0.2152508561583033
 40
0.4345163837059823
 40
1.01494970701215
 40
1.738429140534348
 40
2.240363334908872
 40
2.240363334908872
 40
2.240363334908872
 40
2.240363334908872
 10
3310.399173871633
 20
1126.371044887826
 30
0.0
 10
3310.446213011686
 20
1126.316496153421
 30
0.0
 10
3310.542051337462
 20
1126.207840140544
 30
0.0
 10
3310.778407624982
 20
1125.965656155916
 30
0.0
 10
3311.150413152876
 20
1125.619905909999
 30
0.0
 10
3311.604214761013
 20
1125.224400649349
 30
0.0
 10
3311.922426731647
 20
1124.967999114989
 30
0.0
 10
3312.059067181528
 20
1124.871237711682
 30
0.0
  0
SPLINE
  5
13A
330
1F
100
AcDbEntity
  8
Table_Miura_9555-01_2D
100
AcDbSpline
210
0.0
220
0.0
230
1.0
 70
    24
 71
     2
 72
     6
 73
     3
 74
     0
 42
0.0000000001
 43
0.0000000001
 40
0.0
 40
0.0
 40
0.0
 40
0.5244136134750971
 40
0.5244136134750971
 40
0.5244136134750971
 10
3310.05566494931
 20
1126.767694637734
 30
0.0
 10
3310.227419410471
 20
1126.56936976278
 30
0.0
 10
3310.399173871633
 20
1126.371044887826
 30
0.0
  0
SPLINE
  5
13B
330
1F
100
AcDbEntity
  8
Table_Miura_9555-01_2D
100
AcDbSpline
210
0.0
220
0.0
230
1.0
 70
     8
 71
     3
 72
    13
 73
     9
 74
     0
 42
0.0000000001
 43
0.0000000001
 40
0.0
 40
0.0
 40
0.0
 40
0.0
 40
0.0787536068012881
 40
0.1449423458634473
 40
0.266120321626831
 40
0.3853723078620238
 40
0.4472243187928732
 40
0.5284135023430946
 40
0.5284135023430946
 40
0.5284135023430946
 40
0.5284135023430946
 10
3310.209320064454
 20
1127.120880934177
 30
0.0
 10
3310.183131415113
 20
1127.120317675038
 30
0.0
 10
3310.134611580401
 20
1127.115824654742
 30
0.0
 10
3310.049980696121
 20
1127.088268237171
 30
0.0
 10
3309.972781813352
 20
1127.011312917492
 30
0.0
 10
3309.967905054028
 20
1126.903843694198
 30
0.0
 10
3310.00718615026
 20
1126.824807321878
 30
0.0
 10
3310.037730968359
 20
1126.787986308875
 30
0.0
 10
3310.05566494931
 20
1126.767694637734
 30
0.0
  0
LINE
  5
13C
330
1F
100
AcDbEntity
  8
Table_Miura_9555-01_2D
100
AcDbLine
 10
3354.396729680573
 20
1127.1202808042
 30
0.0
 11
3309.728295568509
 21
1127.120604536889
 31
0.0
  0
SPLINE
  5
13D
330
1F
100
AcDbEntity
  8
Table_Miura_9555-01_2D
100
AcDbSpline
210
0.0
220
0.0
230
1.0
 70
     8
 71
     3
 72
    12
 73
     8
 74
     0
 42
0.0000000001
 43
0.0000000001
 40
0.0
 40
0.0
 40
0.0
 40
0.0
 40
0.0709674213457879
 40
0.1335862693815868
 40
0.2813937667583465
 40
0.4525062216949928
 40
0.6273569207154127
 40
0.6273569207154127
 40
0.6273569207154127
 40
0.6273569207154127
 10
2934.501926520137
 20
1126.767708225959
 30
0.0
 10
2934.501817188283
 20
1126.791326967937
 30
0.0
 10
2934.50280044507
 20
1126.836182940354
 30
0.0
 10
2934.534709640796
 20
1126.925962544025
 30
0.0
 10
2934.622664213614
 20
1127.021415306681
 30
0.0
 10
2934.769527459521
 20
1127.100122419165
 30
0.0
 10
2934.884918962109
 20
1127.119056263902
 30
0.0
 10
2934.943092057693
 20
1127.120535296899
 30
0.0
  0
SPLINE
  5
13E
330
1F
100
AcDbEntity
  8
Table_Miura_9555-01_2D
100
AcDbSpline
210
0.0
220
0.0
230
1.0
 70
    24
 71
     2
 72
     6
 73
     3
 74
     0
 42
0.0000000001
 43
0.0000000001
 40
0.0
 40
0.0
 40
0.0
 40
0.3964465280210447
 40
0.3964465280210447
 40
0.3964465280210447
 10
2934.501953286336
 20
1126.371261698115
 30
0.0
 10
2934.501939903237
 20
1126.569484962037
 30
0.0
 10
2934.501926520137
 20
1126.767708225959
 30
0.0
  0
SPLINE
  5
13F
330
1F
100
AcDbEntity
  8
Table_Miura_9555-01_2D
100
AcDbSpline
210
0.0
220
0.0
230
1.0
 70
     8
 71
     3
 72
    17
 73
    13
 74
     0
 42
0.0000000001
 43
0.0000000001
 40
0.0
 40
0.0
 40
0.0
 40
0.0
 40
0.1433371388019667
 40
0.27412170485795
 40
0.5698915548390707
 40
0.891163767339524
 40
1.191151497005544
 40
1.428512647803955
 40
1.628463248150809
 40
1.792814010234205
 40
1.870845827558681
 40
1.966221106772676
 40
1.966221106772676
 40
1.966221106772676
 40
1.966221106772676
 10
2935.662767913761
 20
1124.870869957899
 30
0.0
 10
2935.621589357097
 20
1124.896517159268
 30
0.0
 10
2935.544432276796
 20
1124.945520493723
 30
0.0
 10
2935.390288579142
 20
1125.056694683653
 30
0.0
 10
2935.199496256451
 20
1125.217488283416
 30
0.0
 10
2934.981511342864
 20
1125.432056564677
 30
0.0
 10
2934.794054206866
 20
1125.648748500116
 30
0.0
 10
2934.652094585326
 20
1125.849746440797
 30
0.0
 10
2934.558129833611
 20
1126.027650128197
 30
0.0
 10
2934.514894109959
 20
1126.169482535465
 30
0.0
 10
2934.502310987348
 20
1126.281667650181
 30
0.0
 10
2934.501852295528
 20
1126.339444829182
 30
0.0
 10
2934.501953286336
 20
1126.371261698115
 30
0.0
  0
SPLINE
  5
140
330
1F
100
AcDbEntity
  8
Table_Miura_9555-01_2D
100
AcDbSpline
210
0.0
220
0.0
230
1.0
 70
     8
 71
     3
 72
    24
 73
    20
 74
     0
 42
0.0000000001
 43
0.0000000001
 40
0.0
 40
0.0
 40
0.0
 40
0.0
 40
0.0020036010011362
 40
0.0022547111983818
 40
0.0025058213949665
 40
0.0056257993940696
 40
0.01124053246391
 40
0.0196887687649597
 40
0.0391810618565542
 40
0.0782064054598164
 40
0.188361477556041
 40
0.3719392572807771
 40
0.7758219389144187
 40
1.546888493465523
 40
3.125770128968858
 40
6.302017912663968
 40
12.52633999462964
 40
18.76876323914055
 40
25.12624730574043
 40
25.12624730574043
 40
25.12624730574043
 40
25.12624730574043
 10
2959.502183552869
 20
1118.034012076493
 30
0.0
 10
2959.501513587932
 20
1118.034012074081
 30
0.0
 10
2959.500563510652
 20
1118.034012101923
 30
0.0
 10
2959.500390950047
 20
1118.0340120113
 30
0.0
 10
2959.50019354755
 20
1118.034012135342
 30
0.0
 10
2959.496340217097
 20
1118.034012300912
 30
0.0
 10
2959.491209677264
 20
1118.034013138014
 30
0.0
 10
2959.479563020011
 20
1118.034016864084
 30
0.0
 10
2959.45779103902
 20
1118.034030805119
 30
0.0
 10
2959.401066303353
 20
1118.034103278441
 30
0.0
 10
2959.290448721168
 20
1118.034430990116
 30
0.0
 10
2959.057759492501
 20
1118.035882329911
 30
0.0
 10
2958.605037330535
 20
1118.041682485884
 30
0.0
 10
2957.687331826555
 20
1118.065474318895
 30
0.0
 10
2955.847541818415
 20
1118.161485497138
 30
0.0
 10
2952.205503660405
 20
1118.544008965798
 30
0.0
 10
2947.092575848684
 20
1119.629111361926
 30
0.0
 10
2941.179627483419
 20
1121.773658192951
 30
0.0
 10
2937.460691746127
 20
1123.747812340382
 30
0.0
 10
2935.662767913761
 20
1124.870869957899
 30
0.0
  0
SPLINE
  5
141
330
1F
100
AcDbEntity
  8
Table_Miura_9555-01_2D
100
AcDbSpline
210
0.0
220
0.0
230
1.0
 70
     8
 71
     3
 72
    25
 73
    21
 74
     0
 42
0.0000000001
 43
0.0000000001
 40
0.0
 40
0.0
 40
0.0
 40
0.0
 40
3.199587773031224
 40
6.339228569859387
 40
12.50824278581488
 40
18.76926702610335
 40
21.92722116738235
 40
23.54279560344114
 40
24.35060102343449
 40
24.73612324148421
 40
24.93803802146848
 40
25.02982611215962
 40
25.08490533980845
 40
25.10555096506041
 40
25.11462558692914
 40
25.12056925615265
 40
25.12388541331136
 40
25.12423612731493
 40
25.12438763465248
 40
25.12589178241075
 40
25.12589178241075
 40
25.12589178241075
 40
25.12589178241075
 10
2983.341070870672
 20
1124.870835958767
 30
0.0
 10
2982.436106636422
 20
1124.305422269266
 30
0.0
 10
2980.604151477561
 20
1123.249732096303
 30
0.0
 10
2976.852552655156
 20
1121.424782220379
 30
0.0
 10
2971.964299603369
 20
1119.64529355706
 30
0.0
 10
2966.871024300234
 20
1118.555444726542
 30
0.0
 10
2963.211275393749
 20
1118.165954603338
 30
0.0
 10
2961.353225874444
 20
1118.066586129519
 30
0.0
 10
2960.417208897615
 20
1118.042029433267
 30
0.0
 10
2959.952174015423
 20
1118.035935215024
 30
0.0
 10
2959.725769457094
 20
1118.034495033776
 30
0.0
 10
2959.609511883232
 20
1118.034117924493
 30
0.0
 10
2959.553674259865
 20
1118.034037647613
 30
0.0
 10
2959.525408333589
 20
1118.034016895074
 30
0.0
 10
2959.51352039393
 20
1118.034013485005
 30
0.0
 10
2959.507450354871
 20
1118.034012228189
 30
0.0
 10
2959.50407254915
 20
1118.034012168848
 30
0.0
 10
2959.503445524002
 20
1118.034012008802
 30
0.0
 10
2959.503434987256
 20
1118.034012093399
 30
0.0
 10
2959.502671889345
 20
1118.034012074025
 30
0.0
 10
2959.502183552869
 20
1118.034012076493
 30
0.0
  0
SPLINE
  5
142
330
1F
100
AcDbEntity
  8
Table_Miura_9555-01_2D
100
AcDbSpline
210
0.0
220
0.0
230
1.0
 70
    24
 71
     2
 72
     6
 73
     3
 74
     0
 42
0.0000000001
 43
0.0000000001
 40
0.0
 40
0.0
 40
0.0
 40
0.0002028258160686
 40
0.0002028258160686
 40
0.0002028258160686
 10
2983.34172897511
 20
1124.87124882846
 30
0.0
 10
2983.341399922891
 20
1124.871042393614
 30
0.0
 10
2983.341070870672
 20
1124.870835958767
 30
0.0
  0
SPLINE
  5
143
330
1F
100
AcDbEntity
  8
Table_Miura_9555-01_2D
100
AcDbSpline
210
0.0
220
0.0
230
1.0
 70
     8
 71
     3
 72
    17
 73
    13
 74
     0
 42
0.0000000001
 43
0.0000000001
 40
0.0
 40
0.0
 40
0.0
 40
0.0
 40
0.0962064271533508
 40
0.1738289297854392
 40
0.3373064891879649
 40
0.5367070411386231
 40
0.7755987407383972
 40
1.076140845210531
 40
1.396849041230197
 40
1.692620935227626
 40
1.823404523223936
 40
1.966221085738844
 40
1.966221085738844
 40
1.966221085738844
 40
1.966221085738844
 10
2984.501937289595
 20
1126.371261698115
 30
0.0
 10
2984.502020975523
 20
1126.339179072966
 30
0.0
 10
2984.501581462759
 20
1126.281243387598
 30
0.0
 10
2984.488880188589
 20
1126.169236616921
 30
0.0
 10
2984.445864364089
 20
1126.027979912882
 30
0.0
 10
2984.35198567863
 20
1125.84999457965
 30
0.0
 10
2984.20972692076
 20
1125.648571704643
 30
0.0
 10
2984.021889529067
 20
1125.431540979039
 30
0.0
 10
2983.803867868016
 20
1125.21701343451
 30
0.0
 10
2983.613192836201
 20
1125.05637252243
 30
0.0
 10
2983.459168975905
 20
1124.945327254817
 30
0.0
 10
2983.382152909955
 20
1124.896427221615
 30
0.0
 10
2983.34172897511
 20
1124.87124882846
 30
0.0
  0
SPLINE
  5
144
330
1F
100
AcDbEntity
  8
Table_Miura_9555-01_2D
100
AcDbSpline
210
0.0
220
0.0
230
1.0
 70
    24
 71
     2
 72
     6
 73
     3
 74
     0
 42
0.0000000001
 43
0.0000000001
 40
0.0
 40
0.0
 40
0.0
 40
0.3964465280210447
 40
0.3964465280210447
 40
0.3964465280210447
 10
2984.501964055794
 20
1126.767708225959
 30
0.0
 10
2984.501950672695
 20
1126.569484962037
 30
0.0
 10
2984.501937289595
 20
1126.371261698115
 30
0.0
  0
SPLINE
  5
145
330
1F
100
AcDbEntity
  8
Table_Miura_9555-01_2D
100
AcDbSpline
210
0.0
220
0.0
230
1.0
 70
     8
 71
     3
 72
    13
 73
     9
 74
     0
 42
0.0000000001
 43
0.0000000001
 40
0.0
 40
0.0
 40
0.0
 40
0.0
 40
0.0902184704601651
 40
0.1761896442498796
 40
0.3455632779639898
 40
0.4948657560424343
 40
0.5565632204593952
 40
0.6273565859503734
 40
0.6273565859503734
 40
0.6273565859503734
 40
0.6273565859503734
 10
2984.060798827938
 20
1127.12054177899
 30
0.0
 10
2984.090876512916
 20
1127.119485253772
 30
0.0
 10
2984.149443360281
 20
1127.114321574525
 30
0.0
 10
2984.261551782695
 20
1127.085403827212
 30
0.0
 10
2984.381704272217
 20
1127.021172813294
 30
0.0
 10
2984.469367134844
 20
1126.925690201583
 30
0.0
 10
2984.501218409706
 20
1126.835760345227
 30
0.0
 10
2984.501975134427
 20
1126.791270068298
 30
0.0
 10
2984.501964055794
 20
1126.767708225959
 30
0.0
  0
LINE
  5
146
330
1F
100
AcDbEntity
  8
Table_Miura_9555-01_2D
100
AcDbLine
 10
2934.371944128212
 20
1127.12126169396
 30
0.0
 11
2984.631046410581
 21
1127.12126169396
 31
0.0
  0
SPLINE
  5
147
330
1F
100
AcDbEntity
  8
Table_Miura_9555-01_2D
100
AcDbSpline
210
0.0
220
0.0
230
1.0
 70
     8
 71
     3
 72
    12
 73
     8
 74
     0
 42
0.0000000001
 43
0.0000000001
 40
0.0
 40
0.0
 40
0.0
 40
0.0
 40
0.089002379783791
 40
0.1797960093880787
 40
0.4111935266141908
 40
0.6556287843907624
 40
0.8529822444616081
 40
0.8529822444616081
 40
0.8529822444616081
 40
0.8529822444616081
 10
2564.5043889737
 20
1126.765467634683
 30
0.0
 10
2564.523700935534
 20
1126.788195439536
 30
0.0
 10
2564.564494612789
 20
1126.832323499525
 30
0.0
 10
2564.673171253988
 20
1126.916576017027
 30
0.0
 10
2564.839692436022
 20
1127.006833195637
 30
0.0
 10
2565.049199417545
 20
1127.088633544641
 30
0.0
 10
2565.194718779451
 20
1127.116482393125
 30
0.0
 10
2565.260609028423
 20
1127.118266124395
 30
0.0
  0
SPLINE
  5
148
330
1F
100
AcDbEntity
  8
Table_Miura_9555-01_2D
100
AcDbSpline
210
0.0
220
0.0
230
1.0
 70
    24
 71
     2
 72
     6
 73
     3
 74
     0
 42
0.0000000001
 43
0.0000000001
 40
0.0
 40
0.0
 40
0.0
 40
0.5244495011186677
 40
0.5244495011186677
 40
0.5244495011186677
 10
2564.16089224237
 20
1126.368830274045
 30
0.0
 10
2564.332640608035
 20
1126.567148954364
 30
0.0
 10
2564.5043889737
 20
1126.765467634683
 30
0.0
  0
SPLINE
  5
149
330
1F
100
AcDbEntity
  8
Table_Miura_9555-01_2D
100
AcDbSpline
210
0.0
220
0.0
230
1.0
 70
     8
 71
     3
 72
    16
 73
    12
 74
     0
 42
0.0000000001
 43
0.0000000001
 40
0.0
 40
0.0
 40
0.0
 40
0.0
 40
0.1449268675943032
 40
0.2673386247060248
 40
0.5163843678365243
 40
0.7646474073394522
 40
0.9969847930951104
 40
1.194773719318494
 40
1.376962800151374
 40
1.556234553971886
 40
1.789638013214851
 40
1.789638013214851
 40
1.789638013214851
 40
1.789638013214851
 10
2564.52162686561
 20
1124.868908975346
 30
0.0
 10
2564.482252105086
 20
1124.897000685616
 30
0.0
 10
2564.410141381082
 20
1124.949439227159
 30
0.0
 10
2564.279569834591
 20
1125.061860619324
 30
0.0
 10
2564.141179895953
 20
1125.216213979913
 30
0.0
 10
2564.011319648408
 20
1125.422974014932
 30
0.0
 10
2563.92918021477
 20
1125.635022402662
 30
0.0
 10
2563.902195598396
 20
1125.839107217832
 30
0.0
 10
2563.931564406372
 20
1126.025427714463
 30
0.0
 10
2564.020098955883
 20
1126.204990961171
 30
0.0
 10
2564.109864720973
 20
1126.310123426778
 30
0.0
 10
2564.16089224237
 20
1126.368830274045
 30
0.0
  0
SPLINE
  5
14A
330
1F
100
AcDbEntity
  8
Table_Miura_9555-01_2D
100
AcDbSpline
210
0.0
220
0.0
230
1.0
 70
     8
 71
     3
 72
    12
 73
     8
 74
     0
 42
0.0000000001
 43
0.0000000001
 40
0.0
 40
0.0
 40
0.0
 40
0.0
 40
2.782398956976483
 40
5.60255636646087
 40
11.31396921066574
 40
16.96595331393149
 40
22.64829073387322
 40
22.64829073387322
 40
22.64829073387322
 40
22.64829073387322
 10
2585.731921792315
 20
1118.031625196488
 30
0.0
 10
2584.804449625861
 20
1118.031571226292
 30
0.0
 10
2582.936967716713
 20
1118.104213012442
 30
0.0
 10
2579.188076248688
 20
1118.539930292513
 30
0.0
 10
2574.573901547097
 20
1119.636179458231
 30
0.0
 10
2569.302680850643
 20
1121.802600175841
 30
0.0
 10
2566.0618952253
 20
1123.766509397342
 30
0.0
 10
2564.52162686561
 20
1124.868908975346
 30
0.0
  0
SPLINE
  5
14B
330
1F
100
AcDbEntity
  8
Table_Miura_9555-01_2D
100
AcDbSpline
210
0.0
220
0.0
230
1.0
 70
     8
 71
     5
 72
    12
 73
     6
 74
     0
 42
0.0000000001
 43
0.0000000001
 40
-1.0
 40
-1.0
 40
-1.0
 40
-1.0
 40
-1.0
 40
-1.0
 40
0.0
 40
0.0
 40
0.0
 40
0.0
 40
0.0
 40
0.0
 10
2586.145794260047
 20
1118.034012036802
 30
0.0
 10
2586.063024035947
 20
1118.033045256286
 30
0.0
 10
2585.980251048918
 20
1118.032315021919
 30
0.0
 10
2585.897473518176
 20
1118.031874654455
 30
0.0
 10
2585.814697662223
 20
1118.031630013269
 30
0.0
 10
2585.731921792315
 20
1118.031625196488
 30
0.0
  0
SPLINE
  5
14C
330
1F
100
AcDbEntity
  8
Table_Miura_9555-01_2D
100
AcDbSpline
210
0.0
220
0.0
230
1.0
 70
     8
 71
     3
 72
    12
 73
     8
 74
     0
 42
0.0000000001
 43
0.0000000001
 40
0.0
 40
0.0
 40
0.0
 40
0.0
 40
2.849423647238892
 40
5.573258475154478
 40
11.17057419198277
 40
16.6544972940824
 40
22.23406149512204
 40
22.23406149512204
 40
22.23406149512204
 40
22.23406149512204
 10
2606.94185629292
 20
1124.868850871368
 30
0.0
 10
2606.169625525141
 20
1124.315763115417
 30
0.0
 10
2604.617163557129
 20
1123.292897246074
 30
0.0
 10
2601.360729612115
 20
1121.482106646342
 30
0.0
 10
2597.098403876302
 20
1119.711779286203
 30
0.0
 10
2591.689754806974
 20
1118.382947969137
 30
0.0
 10
2588.005513841964
 20
1118.055734107464
 30
0.0
 10
2586.145794260047
 20
1118.034012036802
 30
0.0
  0
SPLINE
  5
14D
330
1F
100
AcDbEntity
  8
Table_Miura_9555-01_2D
100
AcDbSpline
210
0.0
220
0.0
230
1.0
 70
     8
 71
     3
 72
    12
 73
     8
 74
     0
 42
0.0000000001
 43
0.0000000001
 40
0.0
 40
0.0
 40
0.0
 40
0.0
 40
0.2152508561583033
 40
0.4345163837059823
 40
1.01494970701215
 40
1.738429140534348
 40
2.240363334908872
 40
2.240363334908872
 40
2.240363334908872
 40
2.240363334908872
 10
2608.601749602815
 20
1126.368658047512
 30
0.0
 10
2608.554710462763
 20
1126.314109313107
 30
0.0
 10
2608.458872136986
 20
1126.205453300229
 30
0.0
 10
2608.222515849466
 20
1125.963269315602
 30
0.0
 10
2607.850510321573
 20
1125.617519069685
 30
0.0
 10
2607.396708713435
 20
1125.222013809035
 30
0.0
 10
2607.078496742801
 20
1124.965612274674
 30
0.0
 10
2606.94185629292
 20
1124.868850871368
 30
0.0
  0
SPLINE
  5
14E
330
1F
100
AcDbEntity
  8
Table_Miura_9555-01_2D
100
AcDbSpline
210
0.0
220
0.0
230
1.0
 70
    24
 71
     2
 72
     6
 73
     3
 74
     0
 42
0.0000000001
 43
0.0000000001
 40
0.0
 40
0.0
 40
0.0
 40
0.5244136134750971
 40
0.5244136134750971
 40
0.5244136134750971
 10
2608.945258525139
 20
1126.76530779742
 30
0.0
 10
2608.773504063977
 20
1126.566982922466
 30
0.0
 10
2608.601749602815
 20
1126.368658047512
 30
0.0
  0
SPLINE
  5
14F
330
1F
100
AcDbEntity
  8
Table_Miura_9555-01_2D
100
AcDbSpline
210
0.0
220
0.0
230
1.0
 70
     8
 71
     3
 72
    13
 73
     9
 74
     0
 42
0.0000000001
 43
0.0000000001
 40
0.0
 40
0.0
 40
0.0
 40
0.0
 40
0.0787536068012881
 40
0.1449423458634473
 40
0.266120321626831
 40
0.3853723078620238
 40
0.4472243187928732
 40
0.5284135023430946
 40
0.5284135023430946
 40
0.5284135023430946
 40
0.5284135023430946
 10
2608.791603409996
 20
1127.118494093863
 30
0.0
 10
2608.817792059335
 20
1127.117930834724
 30
0.0
 10
2608.866311894047
 20
1127.113437814428
 30
0.0
 10
2608.950942778327
 20
1127.085881396857
 30
0.0
 10
2609.028141661096
 20
1127.008926077178
 30
0.0
 10
2609.03301842042
 20
1126.901456853884
 30
0.0
 10
2608.993737324188
 20
1126.822420481564
 30
0.0
 10
2608.963192506089
 20
1126.785599468561
 30
0.0
 10
2608.945258525139
 20
1126.76530779742
 30
0.0
  0
LINE
  5
150
330
1F
100
AcDbEntity
  8
Table_Miura_9555-01_2D
100
AcDbLine
 10
2564.604193793876
 20
1127.117893963886
 30
0.0
 11
2609.272627905939
 21
1127.118217696575
 31
0.0
  0
SPLINE
  5
151
330
1F
100
AcDbEntity
  8
Table_Miura_9555-01_2D
100
AcDbSpline
210
0.0
220
0.0
230
1.0
 70
     8
 71
     3
 72
    13
 73
     9
 74
     0
 42
0.0000000001
 43
0.0000000001
 40
-8.067492795701003
 40
-8.067492795701003
 40
-8.067492795701003
 40
-8.067492795701003
 40
-6.929436622567084
 40
-5.933962300934527
 40
-4.014321351435199
 40
-2.037649979843422
 40
-1.015652899145925
 40
0.0
 40
0.0
 40
0.0
 40
0.0
 10
2932.037822969499
 20
1531.265378681992
 30
0.0
 10
2932.037169675458
 20
1530.886035700926
 30
0.0
 10
2932.050857256639
 20
1530.174658089335
 30
0.0
 10
2932.169482905162
 20
1528.827877419567
 30
0.0
 10
2932.514258299134
 20
1527.227984505651
 30
0.0
 10
2933.136677177481
 20
1525.70447678723
 30
0.0
 10
2933.791772602547
 20
1524.536857560161
 30
0.0
 10
2934.171808953546
 20
1523.972927966312
 30
0.0
 10
2934.371945296974
 20
1523.69998466385
 30
0.0
  0
SPLINE
  5
152
330
1F
100
AcDbEntity
  8
Table_Miura_9555-01_2D
100
AcDbSpline
210
0.0
220
0.0
230
1.0
 70
     8
 71
     3
 72
    12
 73
     8
 74
     0
 42
0.0000000001
 43
0.0000000001
 40
-2.866008512548971
 40
-2.866008512548971
 40
-2.866008512548971
 40
-2.866008512548971
 40
-2.180350089160199
 40
-1.316467333291305
 40
-0.6436630852735567
 40
-0.3236325452860642
 40
0.0
 40
0.0
 40
0.0
 40
0.0
 10
2932.13718584407
 20
1534.129438859527
 30
0.0
 10
2932.121647199595
 20
1533.901191545271
 30
0.0
 10
2932.094047822281
 20
1533.385408963064
 30
0.0
 10
2932.062301913273
 20
1532.645289866047
 30
0.0
 10
2932.044891925773
 20
1532.026610940999
 30
0.0
 10
2932.03905003843
 20
1531.587816445169
 30
0.0
 10
2932.037825162401
 20
1531.373269035524
 30
0.0
 10
2932.037822969499
 20
1531.265378681992
 30
0.0
  0
SPLINE
  5
153
330
1F
100
AcDbEntity
  8
Table_Miura_9555-01_2D
100
AcDbSpline
210
0.0
220
0.0
230
1.0
 70
     8
 71
     3
 72
    16
 73
    12
 74
     0
 42
0.0000000001
 43
0.0000000001
 40
-33.3642801434906
 40
-33.3642801434906
 40
-33.3642801434906
 40
-33.3642801434906
 40
-24.17426881783292
 40
-19.70973193739507
 40
-17.41415730793448
 40
-12.69286067967022
 40
-10.39643749466709
 40
-6.695123544693318
 40
-3.023047667395002
 40
-1.441026840298903
 40
0.0
 40
0.0
 40
0.0
 40
0.0
 10
2936.75403828108
 20
1567.166081762349
 30
0.0
 10
2936.399579073217
 20
1564.123271413519
 30
0.0
 10
2935.790455948979
 20
1559.612226517393
 30
0.0
 10
2934.986337206039
 20
1554.356674062517
 30
0.0
 10
2934.388827660835
 20
1550.576444988929
 30
0.0
 10
2933.895040493684
 20
1547.511553915437
 30
0.0
 10
2933.339612911743
 20
1543.981946839562
 30
0.0
 10
2932.861709433187
 20
1540.794275187518
 30
0.0
 10
2932.477175039617
 20
1537.833702394276
 30
0.0
 10
2932.250163590509
 20
1535.613411964401
 30
0.0
 10
2932.169523555992
 20
1534.608915441099
 30
0.0
 10
2932.13718584407
 20
1534.129438859527
 30
0.0
  0
SPLINE
  5
154
330
1F
100
AcDbEntity
  8
Table_Miura_9555-01_2D
100
AcDbSpline
210
0.0
220
0.0
230
1.0
 70
    12
 71
     3
 72
    18
 73
    14
 74
     0
 42
0.0000000001
 43
0.0000000001
 40
-17.08061118246446
 40
-17.08061118246446
 40
-17.08061118246446
 40
-17.08061118246446
 40
-15.57895392647034
 40
-15.57895392647034
 40
-15.57895392647034
 40
-11.24807156559795
 40
-11.24807156559795
 40
-11.24807156559795
 40
-8.873594413233327
 40
-6.279800604855796
 40
-3.187801552011506
 40
-1.394045745757028
 40
0.0
 40
0.0
 40
0.0
 40
0.0
 10
2939.007244743857
 20
1583.655896120398
 30
0.0
 41
1.0
 10
2938.453395605236
 20
1583.637208683027
 30
0.0
 41
0.8207490813200227
 10
2938.061208434536
 20
1583.245523275114
 30
0.0
 41
0.8207490813200227
 10
2938.041582963688
 20
1582.691469804263
 30
0.0
 41
1.0
 10
2937.990167542765
 20
1581.248431516234
 30
0.0
 41
0.9999156577956787
 10
2937.915792809948
 20
1579.806311377169
 30
0.0
 41
0.9999156577956787
 10
2937.818477584026
 20
1578.365474281842
 30
0.0
 41
1.0
 10
2937.765235641254
 20
1577.575126147218
 30
0.0
 41
1.0
 10
2937.641160836129
 20
1575.923642378231
 30
0.0
 41
1.0
 10
2937.40104954245
 20
1573.247578393959
 30
0.0
 41
1.0
 10
2937.150009595273
 20
1570.767038394452
 30
0.0
 41
1.0
 10
2936.926028083103
 20
1568.685785539917
 30
0.0
 41
1.0
 10
2936.807806081996
 20
1567.627644665586
 30
0.0
 41
1.0
 10
2936.754038281079
 20
1567.166081762349
 30
0.0
 41
1.0
  0
SPLINE
  5
155
330
1F
100
AcDbEntity
  8
Table_Miura_9555-01_2D
100
AcDbSpline
210
0.0
220
0.0
230
1.0
 70
     8
 71
     3
 72
    18
 73
    14
 74
     0
 42
0.0000000001
 43
0.0000000001
 40
-23.989786789493
 40
-23.989786789493
 40
-23.989786789493
 40
-23.989786789493
 40
-22.58263901442267
 40
-21.34373030388689
 40
-18.62944873608983
 40
-13.20000755298573
 40
-11.39409917538949
 40
-8.514888277655797
 40
-6.682465050476555
 40
-5.425659454196718
 40
-3.282334438373457
 40
-1.290606615411303
 40
0.0
 40
0.0
 40
0.0
 40
0.0
 10
2921.609812690516
 20
1541.373901980988
 30
0.0
 10
2921.363183886509
 20
1540.974931587485
 30
0.0
 10
2920.897950950052
 20
1540.225559266016
 30
0.0
 10
2919.931572275721
 20
1538.722602064217
 30
0.0
 10
2918.186180207518
 20
1536.127051054492
 30
0.0
 10
2916.225639402123
 20
1533.450555352689
 30
0.0
 10
2914.13825662298
 20
1530.802756608924
 30
0.0
 10
2912.75217540525
 20
1529.129569905116
 30
0.0
 10
2911.457589072729
 20
1527.618939183079
 30
0.0
 10
2910.312498504977
 20
1526.303246784027
 30
0.0
 10
2909.131725291648
 20
1524.948280540572
 30
0.0
 10
2907.949096055434
 20
1523.579947089296
 30
0.0
 10
2907.218964644044
 20
1522.735354568699
 30
0.0
 10
2906.937328641873
 20
1522.410149325161
 30
0.0
  0
SPLINE
  5
156
330
1F
100
AcDbEntity
  8
Table_Miura_9555-01_2D
100
AcDbSpline
210
0.0
220
0.0
230
1.0
 70
     8
 71
     3
 72
    16
 73
    12
 74
     0
 42
0.0000000001
 43
0.0000000001
 40
-44.08091113805039
 40
-44.08091113805039
 40
-44.08091113805039
 40
-44.08091113805039
 40
-41.32262018863005
 40
-38.57568005800472
 40
-32.83955618066763
 40
-27.18774927002762
 40
-21.55559266881473
 40
-10.57964571019579
 40
-5.268782545111494
 40
-2.760660175474776
 40
0.0
 40
0.0
 40
0.0
 40
0.0
 10
2934.293203104862
 20
1583.122762154687
 30
0.0
 10
2934.25198284557
 20
1582.204275375873
 30
0.0
 10
2934.14269715812
 20
1580.372173831364
 30
0.0
 10
2933.790601755829
 20
1576.641122371002
 30
0.0
 10
2933.133243604461
 20
1571.973452050784
 30
0.0
 10
2932.000306468165
 20
1566.411450021703
 30
0.0
 10
2930.07020755149
 20
1559.243537444755
 30
0.0
 10
2927.513929626119
 20
1552.382784492303
 30
0.0
 10
2924.74691930759
 20
1546.757403964587
 30
0.0
 10
2923.026654652094
 20
1543.678462119689
 30
0.0
 10
2922.0935988743
 20
1542.156520884299
 30
0.0
 10
2921.609812690516
 20
1541.373901980988
 30
0.0
  0
SPLINE
  5
157
330
1F
100
AcDbEntity
  8
Table_Miura_9555-01_2D
100
AcDbSpline
210
0.0
220
0.0
230
1.0
 70
    12
 71
     2
 72
     6
 73
     3
 74
     0
 42
0.0000000001
 43
0.0000000001
 40
-0.8893486808566594
 40
-0.8893486808566594
 40
-0.8893486808566594
 40
0.0
 40
0.0
 40
0.0
 10
2934.33741069809
 20
1584.123556951438
 30
0.0
 41
1.0
 10
2934.31313939368
 20
1583.566990745484
 30
0.0
 41
0.999995344343841
 10
2934.293203104862
 20
1583.122762154687
 30
0.0
 41
1.0
  0
SPLINE
  5
158
330
1F
100
AcDbEntity
  8
Table_Miura_9555-01_2D
100
AcDbSpline
210
0.0
220
0.0
230
1.0
 70
    12
 71
     3
 72
    15
 73
    11
 74
     0
 42
0.0000000001
 43
0.0000000001
 40
-2.500401592028198
 40
-2.500401592028198
 40
-2.500401592028198
 40
-2.500401592028198
 40
-2.092447594524907
 40
-1.587472916212024
 40
-0.9787609925742227
 40
-0.6090244151814629
 40
0.0
 40
0.0
 40
0.0
 40
0.3719149623461165
 40
0.3719149623461165
 40
0.3719149623461165
 40
0.3719149623461165
 10
2934.501618916287
 20
1587.000496541503
 30
0.0
 41
1.0
 10
2934.482316523298
 20
1586.865881310211
 30
0.0
 41
1.0
 10
2934.448564942869
 20
1586.563367604336
 30
0.0
 41
1.0
 10
2934.412514198324
 20
1586.057372519275
 30
0.0
 41
1.0
 10
2934.389422935137
 20
1585.563421466518
 30
0.0
 41
1.0
 10
2934.369350783298
 20
1585.034645198836
 30
0.0
 41
1.0
 10
2934.358206510091
 20
1584.704037322141
 30
0.0
 41
1.0
 10
2934.351170066893
 20
1584.501151737012
 30
0.0
 41
1.0
 10
2934.346873084562
 20
1584.377254513681
 30
0.0
 41
0.9999990251576335
 10
2934.342811849166
 20
1584.247410952478
 30
0.0
 41
0.9999990251576335
 10
2934.33741069809
 20
1584.123556951438
 30
0.0
 41
1.0
  0
SPLINE
  5
159
330
1F
100
AcDbEntity
  8
Table_Miura_9555-01_2D
100
AcDbSpline
210
0.0
220
0.0
230
1.0
 70
     8
 71
     3
 72
    13
 73
     9
 74
     0
 42
0.0000000001
 43
0.0000000001
 40
-8.067492795701003
 40
-8.067492795701003
 40
-8.067492795701003
 40
-8.067492795701003
 40
-6.929436622567084
 40
-5.933962300934527
 40
-4.014321351435199
 40
-2.037649979843422
 40
-1.015652899145925
 40
0.0
 40
0.0
 40
0.0
 40
0.0
 10
2986.965167569294
 20
1531.265378681992
 30
0.0
 10
2986.965820863336
 20
1530.886035700926
 30
0.0
 10
2986.952133282155
 20
1530.174658089335
 30
0.0
 10
2986.833507633632
 20
1528.827877419567
 30
0.0
 10
2986.48873223966
 20
1527.227984505651
 30
0.0
 10
2985.866313361313
 20
1525.70447678723
 30
0.0
 10
2985.211217936247
 20
1524.536857560161
 30
0.0
 10
2984.831181585248
 20
1523.972927966312
 30
0.0
 10
2984.63104524182
 20
1523.69998466385
 30
0.0
  0
SPLINE
  5
15A
330
1F
100
AcDbEntity
  8
Table_Miura_9555-01_2D
100
AcDbSpline
210
0.0
220
0.0
230
1.0
 70
     8
 71
     3
 72
    12
 73
     8
 74
     0
 42
0.0000000001
 43
0.0000000001
 40
-2.866008512548971
 40
-2.866008512548971
 40
-2.866008512548971
 40
-2.866008512548971
 40
-2.180350089160199
 40
-1.316467333291305
 40
-0.6436630852735567
 40
-0.3236325452860642
 40
0.0
 40
0.0
 40
0.0
 40
0.0
 10
2986.865804694723
 20
1534.129438859527
 30
0.0
 10
2986.881343339198
 20
1533.901191545271
 30
0.0
 10
2986.908942716512
 20
1533.385408963064
 30
0.0
 10
2986.940688625521
 20
1532.645289866047
 30
0.0
 10
2986.958098613021
 20
1532.026610940999
 30
0.0
 10
2986.963940500364
 20
1531.587816445169
 30
0.0
 10
2986.965165376393
 20
1531.373269035524
 30
0.0
 10
2986.965167569294
 20
1531.265378681992
 30
0.0
  0
SPLINE
  5
15B
330
1F
100
AcDbEntity
  8
Table_Miura_9555-01_2D
100
AcDbSpline
210
0.0
220
0.0
230
1.0
 70
     8
 71
     3
 72
    16
 73
    12
 74
     0
 42
0.0000000001
 43
0.0000000001
 40
-33.3642801434906
 40
-33.3642801434906
 40
-33.3642801434906
 40
-33.3642801434906
 40
-24.17426881783292
 40
-19.70973193739507
 40
-17.41415730793448
 40
-12.69286067967022
 40
-10.39643749466709
 40
-6.695123544693318
 40
-3.023047667395002
 40
-1.441026840298903
 40
0.0
 40
0.0
 40
0.0
 40
0.0
 10
2982.248952257715
 20
1567.166081762349
 30
0.0
 10
2982.603411465577
 20
1564.123271413519
 30
0.0
 10
2983.212534589816
 20
1559.612226517393
 30
0.0
 10
2984.016653332755
 20
1554.356674062517
 30
0.0
 10
2984.614162877959
 20
1550.576444988929
 30
0.0
 10
2985.10795004511
 20
1547.511553915437
 30
0.0
 10
2985.663377627051
 20
1543.981946839562
 30
0.0
 10
2986.141281105608
 20
1540.794275187518
 30
0.0
 10
2986.525815499177
 20
1537.833702394276
 30
0.0
 10
2986.752826948285
 20
1535.613411964401
 30
0.0
 10
2986.833466982801
 20
1534.608915441099
 30
0.0
 10
2986.865804694723
 20
1534.129438859527
 30
0.0
  0
SPLINE
  5
15C
330
1F
100
AcDbEntity
  8
Table_Miura_9555-01_2D
100
AcDbSpline
210
0.0
220
0.0
230
1.0
 70
    12
 71
     3
 72
    18
 73
    14
 74
     0
 42
0.0000000001
 43
0.0000000001
 40
-17.08061118246446
 40
-17.08061118246446
 40
-17.08061118246446
 40
-17.08061118246446
 40
-15.57895392647034
 40
-15.57895392647034
 40
-15.57895392647034
 40
-11.24807156559795
 40
-11.24807156559795
 40
-11.24807156559795
 40
-8.873594413233327
 40
-6.279800604855796
 40
-3.187801552011506
 40
-1.394045745757028
 40
0.0
 40
0.0
 40
0.0
 40
0.0
 10
2979.995745794936
 20
1583.655896120398
 30
0.0
 41
1.0
 10
2980.549594933558
 20
1583.637208683027
 30
0.0
 41
0.8207490813200227
 10
2980.941782104258
 20
1583.245523275114
 30
0.0
 41
0.8207490813200227
 10
2980.961407575106
 20
1582.691469804263
 30
0.0
 41
1.0
 10
2981.01282299603
 20
1581.248431516234
 30
0.0
 41
0.9999156577956787
 10
2981.087197728846
 20
1579.806311377169
 30
0.0
 41
0.9999156577956787
 10
2981.184512954769
 20
1578.365474281842
 30
0.0
 41
1.0
 10
2981.23775489754
 20
1577.575126147218
 30
0.0
 41
1.0
 10
2981.361829702665
 20
1575.923642378231
 30
0.0
 41
1.0
 10
2981.601940996344
 20
1573.247578393959
 30
0.0
 41
1.0
 10
2981.852980943521
 20
1570.767038394452
 30
0.0
 41
1.0
 10
2982.076962455691
 20
1568.685785539917
 30
0.0
 41
1.0
 10
2982.195184456798
 20
1567.627644665586
 30
0.0
 41
1.0
 10
2982.248952257715
 20
1567.166081762349
 30
0.0
 41
1.0
  0
SPLINE
  5
15D
330
1F
100
AcDbEntity
  8
Table_Miura_9555-01_2D
100
AcDbSpline
210
0.0
220
0.0
230
1.0
 70
     8
 71
     3
 72
    18
 73
    14
 74
     0
 42
0.0000000001
 43
0.0000000001
 40
-23.989786789493
 40
-23.989786789493
 40
-23.989786789493
 40
-23.989786789493
 40
-22.58263901442267
 40
-21.34373030388689
 40
-18.62944873608983
 40
-13.20000755298573
 40
-11.39409917538949
 40
-8.514888277655797
 40
-6.682465050476555
 40
-5.425659454196718
 40
-3.282334438373457
 40
-1.290606615411303
 40
0.0
 40
0.0
 40
0.0
 40
0.0
 10
2997.393177848279
 20
1541.373901980988
 30
0.0
 10
2997.639806652285
 20
1540.974931587485
 30
0.0
 10
2998.105039588743
 20
1540.225559266016
 30
0.0
 10
2999.071418263073
 20
1538.722602064217
 30
0.0
 10
3000.816810331277
 20
1536.127051054492
 30
0.0
 10
3002.777351136672
 20
1533.450555352689
 30
0.0
 10
3004.864733915815
 20
1530.802756608924
 30
0.0
 10
3006.250815133544
 20
1529.129569905116
 30
0.0
 10
3007.545401466066
 20
1527.618939183079
 30
0.0
 10
3008.690492033818
 20
1526.303246784027
 30
0.0
 10
3009.871265247145
 20
1524.948280540572
 30
0.0
 10
3011.053894483361
 20
1523.579947089296
 30
0.0
 10
3011.784025894749
 20
1522.735354568699
 30
0.0
 10
3012.065661896921
 20
1522.410149325161
 30
0.0
  0
SPLINE
  5
15E
330
1F
100
AcDbEntity
  8
Table_Miura_9555-01_2D
100
AcDbSpline
210
0.0
220
0.0
230
1.0
 70
     8
 71
     3
 72
    16
 73
    12
 74
     0
 42
0.0000000001
 43
0.0000000001
 40
-44.08091113805039
 40
-44.08091113805039
 40
-44.08091113805039
 40
-44.08091113805039
 40
-41.32262018863005
 40
-38.57568005800472
 40
-32.83955618066763
 40
-27.18774927002762
 40
-21.55559266881473
 40
-10.57964571019579
 40
-5.268782545111494
 40
-2.760660175474776
 40
0.0
 40
0.0
 40
0.0
 40
0.0
 10
2984.709787433932
 20
1583.122762154687
 30
0.0
 10
2984.751007693224
 20
1582.204275375873
 30
0.0
 10
2984.860293380674
 20
1580.372173831364
 30
0.0
 10
2985.212388782966
 20
1576.641122371002
 30
0.0
 10
2985.869746934333
 20
1571.973452050784
 30
0.0
 10
2987.00268407063
 20
1566.411450021703
 30
0.0
 10
2988.932782987305
 20
1559.243537444755
 30
0.0
 10
2991.489060912676
 20
1552.382784492303
 30
0.0
 10
2994.256071231204
 20
1546.757403964587
 30
0.0
 10
2995.9763358867
 20
1543.678462119689
 30
0.0
 10
2996.909391664494
 20
1542.156520884299
 30
0.0
 10
2997.393177848279
 20
1541.373901980988
 30
0.0
  0
SPLINE
  5
15F
330
1F
100
AcDbEntity
  8
Table_Miura_9555-01_2D
100
AcDbSpline
210
0.0
220
0.0
230
1.0
 70
    12
 71
     2
 72
     6
 73
     3
 74
     0
 42
0.0000000001
 43
0.0000000001
 40
-0.8893486808566594
 40
-0.8893486808566594
 40
-0.8893486808566594
 40
0.0
 40
0.0
 40
0.0
 10
2984.665579840703
 20
1584.123556951438
 30
0.0
 41
1.0
 10
2984.689851145115
 20
1583.566990745484
 30
0.0
 41
0.999995344343841
 10
2984.709787433932
 20
1583.122762154687
 30
0.0
 41
1.0
  0
SPLINE
  5
160
330
1F
100
AcDbEntity
  8
Table_Miura_9555-01_2D
100
AcDbSpline
210
0.0
220
0.0
230
1.0
 70
    12
 71
     3
 72
    15
 73
    11
 74
     0
 42
0.0000000001
 43
0.0000000001
 40
-2.500401592028198
 40
-2.500401592028198
 40
-2.500401592028198
 40
-2.500401592028198
 40
-2.092447594524907
 40
-1.587472916212024
 40
-0.9787609925742227
 40
-0.6090244151814629
 40
0.0
 40
0.0
 40
0.0
 40
0.3719149623461165
 40
0.3719149623461165
 40
0.3719149623461165
 40
0.3719149623461165
 10
2984.501371622507
 20
1587.000496541503
 30
0.0
 41
1.0
 10
2984.520674015497
 20
1586.865881310211
 30
0.0
 41
1.0
 10
2984.554425595924
 20
1586.563367604336
 30
0.0
 41
1.0
 10
2984.59047634047
 20
1586.057372519275
 30
0.0
 41
1.0
 10
2984.613567603658
 20
1585.563421466518
 30
0.0
 41
1.0
 10
2984.633639755496
 20
1585.034645198836
 30
0.0
 41
1.0
 10
2984.644784028702
 20
1584.704037322141
 30
0.0
 41
1.0
 10
2984.651820471901
 20
1584.501151737012
 30
0.0
 41
1.0
 10
2984.656117454231
 20
1584.377254513681
 30
0.0
 41
0.9999990251576335
 10
2984.660178689627
 20
1584.247410952478
 30
0.0
 41
0.9999990251576335
 10
2984.665579840703
 20
1584.123556951438
 30
0.0
 41
1.0
  0
SPLINE
  5
161
330
1F
100
AcDbEntity
  8
Table_Miura_9555-01_2D
100
AcDbSpline
210
0.0
220
0.0
230
1.0
 70
    12
 71
     2
 72
     6
 73
     3
 74
     0
 42
0.0000000001
 43
0.0000000001
 40
-3.028274426341321
 40
-3.028274426341321
 40
-3.028274426341321
 40
0.0
 40
0.0
 40
0.0
 10
2984.631045249296
 20
1531.266413198918
 30
0.0
 41
1.0
 10
2984.628500447865
 20
1532.780684870625
 30
0.0
 41
0.9998646962170749
 10
2984.576145445146
 20
1534.294053340443
 30
0.0
 41
1.0
  0
SPLINE
  5
162
330
1F
100
AcDbEntity
  8
Table_Miura_9555-01_2D
100
AcDbSpline
210
0.0
220
0.0
230
1.0
 70
     8
 71
     3
 72
     8
 73
     4
 74
     0
 42
0.0000000001
 43
0.0000000001
 40
0.0
 40
0.0
 40
0.0
 40
0.0
 40
17.56166272600342
 40
17.56166272600342
 40
17.56166272600342
 40
17.56166272600342
 10
2984.631046410581
 20
1513.612996737426
 30
0.0
 10
2984.631046410581
 20
1519.46688431276
 30
0.0
 10
2984.631045238183
 20
1525.412525623584
 30
0.0
 10
2984.631045249296
 20
1531.266413198918
 30
0.0
  0
SPLINE
  5
163
330
1F
100
AcDbEntity
  8
Table_Miura_9555-01_2D
100
AcDbSpline
210
0.0
220
0.0
230
1.0
 70
     8
 71
     3
 72
     8
 73
     4
 74
     0
 42
0.0000000001
 43
0.0000000001
 40
-17.56166272600342
 40
-17.56166272600342
 40
-17.56166272600342
 40
-17.56166272600342
 40
0.0
 40
0.0
 40
0.0
 40
0.0
 10
2934.371945289499
 20
1531.266413198918
 30
0.0
 10
2934.371945300611
 20
1525.412525623584
 30
0.0
 10
2934.371944128212
 20
1519.46688431276
 30
0.0
 10
2934.371944128212
 20
1513.612996737426
 30
0.0
  0
SPLINE
  5
164
330
1F
100
AcDbEntity
  8
Table_Miura_9555-01_2D
100
AcDbSpline
210
0.0
220
0.0
230
1.0
 70
    12
 71
     2
 72
     6
 73
     3
 74
     0
 42
0.0000000001
 43
0.0000000001
 40
0.0
 40
0.0
 40
0.0
 40
3.028274426341321
 40
3.028274426341321
 40
3.028274426341321
 10
2934.426845093647
 20
1534.294053340443
 30
0.0
 41
1.0
 10
2934.37449009093
 20
1532.780684870625
 30
0.0
 41
0.9998646962170749
 10
2934.371945289499
 20
1531.266413198918
 30
0.0
 41
1.0
  0
SPLINE
  5
165
330
1F
100
AcDbEntity
  8
Table_Miura_9555-01_2D
100
AcDbSpline
210
0.0
220
0.0
230
1.0
 70
    12
 71
     3
 72
    12
 73
     8
 74
     0
 42
0.0000000001
 43
0.0000000001
 40
-0.5262507170806857
 40
-0.5262507170806857
 40
-0.5262507170806857
 40
-0.5262507170806857
 40
-0.5145170103963779
 40
-0.5145170103963779
 40
-0.2542829628112115
 40
-0.2542829628112115
 40
-0.0317448945959232
 40
-0.0317448945959232
 40
-0.0317448945959232
 40
-0.0317448945959232
 10
2980.628704443206
 20
1583.401802450416
 30
0.0
 41
1.0
 10
2980.631181121177
 20
1583.406239188382
 30
0.0
 41
1.0
 10
2980.633672458597
 20
1583.410608124922
 30
0.0
 41
1.0
 10
2980.691731315936
 20
1583.510256116016
 30
0.0
 41
1.0
 10
2980.750845384756
 20
1583.570384576212
 30
0.0
 41
1.0
 10
2980.854401625669
 20
1583.638203270738
 30
0.0
 41
1.0
 10
2980.900002845851
 20
1583.652679087365
 30
0.0
 41
1.0
 10
2980.943523779154
 20
1583.655807743813
 30
0.0
 41
1.0
  0
SPLINE
  5
166
330
1F
100
AcDbEntity
  8
Table_Miura_9555-01_2D
100
AcDbSpline
210
0.0
220
0.0
230
1.0
 70
    12
 71
     3
 72
    12
 73
     8
 74
     0
 42
0.0000000001
 43
0.0000000001
 40
-0.5262507170806857
 40
-0.5262507170806857
 40
-0.5262507170806857
 40
-0.5262507170806857
 40
-0.5145170103963779
 40
-0.5145170103963779
 40
-0.2542829628112115
 40
-0.2542829628112115
 40
-0.0317448945959232
 40
-0.0317448945959232
 40
-0.0317448945959232
 40
-0.0317448945959232
 10
2938.374286095588
 20
1583.401802450416
 30
0.0
 41
1.0
 10
2938.371809417618
 20
1583.406239188382
 30
0.0
 41
1.0
 10
2938.369318080197
 20
1583.410608124922
 30
0.0
 41
1.0
 10
2938.311259222859
 20
1583.510256116016
 30
0.0
 41
1.0
 10
2938.252145154038
 20
1583.570384576212
 30
0.0
 41
1.0
 10
2938.148588913125
 20
1583.638203270738
 30
0.0
 41
1.0
 10
2938.102987692943
 20
1583.652679087365
 30
0.0
 41
1.0
 10
2938.05946675964
 20
1583.655807743813
 30
0.0
 41
1.0
  0
ARC
  5
167
330
1F
100
AcDbEntity
  8
Table_Miura_9555-01_2D
100
AcDbCircle
 10
2974.487824996158
 20
1584.255806479968
 30
0.0
 40
10.01354662635185
100
AcDbArc
 50
356.5686501530192
 51
0.0
  0
SPLINE
  5
168
330
1F
100
AcDbEntity
  8
Table_Miura_9555-01_2D
100
AcDbSpline
210
0.0
220
0.0
230
1.0
 70
    12
 71
     2
 72
     6
 73
     3
 74
     0
 42
0.0000000001
 43
0.0000000001
 40
0.0
 40
0.0
 40
0.0
 40
3.332521385645804
 40
3.332521385645804
 40
3.332521385645804
 10
2984.483419621887
 20
1583.65647008342
 30
0.0
 41
1.0
 10
2982.817158929064
 20
1583.656470138102
 30
0.0
 41
0.9999999999999998
 10
2981.150898236241
 20
1583.656470117817
 30
0.0
 41
1.0
  0
SPLINE
  5
169
330
1F
100
AcDbEntity
  8
Table_Miura_9555-01_2D
100
AcDbSpline
210
0.0
220
0.0
230
1.0
 70
    24
 71
     2
 72
     6
 73
     3
 74
     0
 42
0.0000000001
 43
0.0000000001
 40
0.0
 40
0.0
 40
0.0
 40
8.348680839593043
 40
8.348680839593043
 40
8.348680839593043
 10
2981.150898236241
 20
1583.656470117817
 30
0.0
 10
2976.976557816444
 20
1583.656470103383
 30
0.0
 10
2972.802217396648
 20
1583.656470088949
 30
0.0
  0
SPLINE
  5
16A
330
1F
100
AcDbEntity
  8
Table_Miura_9555-01_2D
100
AcDbSpline
210
0.0
220
0.0
230
1.0
 70
    24
 71
     2
 72
     6
 73
     3
 74
     0
 42
0.0000000001
 43
0.0000000001
 40
0.0
 40
0.0
 40
0.0
 40
0.0160983755549751
 40
0.0160983755549751
 40
0.0160983755549751
 10
2972.802217396648
 20
1583.656470088949
 30
0.0
 10
2972.794168208869
 20
1583.656470088901
 30
0.0
 10
2972.786119021094
 20
1583.656470088854
 30
0.0
  0
SPLINE
  5
16B
330
1F
100
AcDbEntity
  8
Table_Miura_9555-01_2D
100
AcDbSpline
210
0.0
220
0.0
230
1.0
 70
    12
 71
     3
 72
    10
 73
     6
 74
     0
 42
0.0000000001
 43
0.0000000001
 40
0.0049548717152337
 40
0.0049548717152337
 40
0.0049548717152337
 40
0.0049548717152337
 40
0.7080051891948135
 40
0.7080051891948135
 40
1.41140173157308
 40
1.41140173157308
 40
1.41140173157308
 40
1.41140173157308
 10
2972.786119021094
 20
1583.656470088854
 30
0.0
 41
1.0
 10
2972.585403244333
 20
1583.65646476979
 30
0.0
 41
1.0
 10
2972.389733280108
 20
1583.740182802092
 30
0.0
 41
1.0
 10
2972.078293992435
 20
1584.046710181044
 30
0.0
 41
1.0
 10
2971.97386906156
 20
1584.258706301834
 30
0.0
 41
1.0
 10
2971.940175361806
 20
1584.492579762253
 30
0.0
 41
1.0
  0
SPLINE
  5
16C
330
1F
100
AcDbEntity
  8
Table_Miura_9555-01_2D
100
AcDbSpline
210
0.0
220
0.0
230
1.0
 70
     8
 71
     3
 72
    18
 73
    14
 74
     0
 42
0.0000000001
 43
0.0000000001
 40
0.0
 40
0.0
 40
0.0
 40
0.0
 40
1.377704624405373
 40
2.696713512584107
 40
3.984914730732072
 40
5.250484060508209
 40
5.917725107688561
 40
6.281926508383835
 40
6.60481718544714
 40
6.899780132333365
 40
7.290264732586266
 40
8.184836209513848
 40
14.64921461756716
 40
14.64921461756716
 40
14.64921461756716
 40
14.64921461756716
 10
2971.940175361806
 20
1584.492579762253
 30
0.0
 10
2971.874780139261
 20
1584.947078709257
 30
0.0
 10
2971.640774456325
 20
1585.822134020601
 30
0.0
 10
2970.977525000524
 20
1586.986602238628
 30
0.0
 10
2970.04134799774
 20
1587.895919735448
 30
0.0
 10
2969.073463338474
 20
1588.387887777158
 30
0.0
 10
2968.329519737384
 20
1588.576627329035
 30
0.0
 10
2967.881818212164
 20
1588.638163010887
 30
0.0
 10
2967.55491831534
 20
1588.657526988355
 30
0.0
 10
2967.218726276259
 20
1588.656757270974
 30
0.0
 10
2966.692106870492
 20
1588.656357535288
 30
0.0
 10
2964.109057807289
 20
1588.656624077961
 30
0.0
 10
2961.656199894748
 20
1588.65637865796
 30
0.0
 10
2959.501495269397
 20
1588.656470123051
 30
0.0
  0
SPLINE
  5
16D
330
1F
100
AcDbEntity
  8
Table_Miura_9555-01_2D
100
AcDbSpline
210
0.0
220
0.0
230
1.0
 70
     8
 71
     3
 72
    18
 73
    14
 74
     0
 42
0.0000000001
 43
0.0000000001
 40
-14.64921461756716
 40
-14.64921461756716
 40
-14.64921461756716
 40
-14.64921461756716
 40
-8.184836209513706
 40
-7.290264732586143
 40
-6.899780132333247
 40
-6.604817185447028
 40
-6.281926508383727
 40
-5.91772510768846
 40
-5.25048406050812
 40
-3.984914730732004
 40
-2.69671351258406
 40
-1.37770462440535
 40
0.0
 40
0.0
 40
0.0
 40
0.0
 10
2959.501495269397
 20
1588.656470123051
 30
0.0
 10
2957.346790644046
 20
1588.65637865796
 30
0.0
 10
2954.893932731504
 20
1588.656624077961
 30
0.0
 10
2952.310883668302
 20
1588.656357535288
 30
0.0
 10
2951.784264262535
 20
1588.656757270974
 30
0.0
 10
2951.448072223453
 20
1588.657526988355
 30
0.0
 10
2951.12117232663
 20
1588.638163010887
 30
0.0
 10
2950.67347080141
 20
1588.576627329035
 30
0.0
 10
2949.92952720032
 20
1588.387887777158
 30
0.0
 10
2948.961642541054
 20
1587.895919735448
 30
0.0
 10
2948.02546553827
 20
1586.986602238628
 30
0.0
 10
2947.362216082469
 20
1585.822134020601
 30
0.0
 10
2947.128210399532
 20
1584.947078709257
 30
0.0
 10
2947.062815176988
 20
1584.492579762253
 30
0.0
  0
SPLINE
  5
16E
330
1F
100
AcDbEntity
  8
Table_Miura_9555-01_2D
100
AcDbSpline
210
0.0
220
0.0
230
1.0
 70
    12
 71
     3
 72
    10
 73
     6
 74
     0
 42
0.0000000001
 43
0.0000000001
 40
-1.41140173157308
 40
-1.41140173157308
 40
-1.41140173157308
 40
-1.41140173157308
 40
-0.7080051891948135
 40
-0.7080051891948135
 40
-0.0049548717152337
 40
-0.0049548717152337
 40
-0.0049548717152337
 40
-0.0049548717152337
 10
2947.062815176988
 20
1584.492579762253
 30
0.0
 41
1.0
 10
2947.029121477234
 20
1584.258706301834
 30
0.0
 41
1.0
 10
2946.924696546359
 20
1584.046710181044
 30
0.0
 41
1.0
 10
2946.613257258686
 20
1583.740182802092
 30
0.0
 41
1.0
 10
2946.417587294461
 20
1583.65646476979
 30
0.0
 41
1.0
 10
2946.216871517701
 20
1583.656470088854
 30
0.0
 41
1.0
  0
SPLINE
  5
16F
330
1F
100
AcDbEntity
  8
Table_Miura_9555-01_2D
100
AcDbSpline
210
0.0
220
0.0
230
1.0
 70
    24
 71
     2
 72
     6
 73
     3
 74
     0
 42
0.0000000001
 43
0.0000000001
 40
-0.0160983755549751
 40
-0.0160983755549751
 40
-0.0160983755549751
 40
0.0
 40
0.0
 40
0.0
 10
2946.216871517701
 20
1583.656470088854
 30
0.0
 10
2946.208822329923
 20
1583.656470088901
 30
0.0
 10
2946.200773142146
 20
1583.656470088949
 30
0.0
  0
SPLINE
  5
170
330
1F
100
AcDbEntity
  8
Table_Miura_9555-01_2D
100
AcDbSpline
210
0.0
220
0.0
230
1.0
 70
    24
 71
     2
 72
     6
 73
     3
 74
     0
 42
0.0000000001
 43
0.0000000001
 40
-8.348680839593043
 40
-8.348680839593043
 40
-8.348680839593043
 40
0.0
 40
0.0
 40
0.0
 10
2946.200773142146
 20
1583.656470088949
 30
0.0
 10
2942.02643272235
 20
1583.656470103383
 30
0.0
 10
2937.852092302553
 20
1583.656470117817
 30
0.0
  0
SPLINE
  5
171
330
1F
100
AcDbEntity
  8
Table_Miura_9555-01_2D
100
AcDbSpline
210
0.0
220
0.0
230
1.0
 70
    12
 71
     2
 72
     6
 73
     3
 74
     0
 42
0.0000000001
 43
0.0000000001
 40
-3.332521385645804
 40
-3.332521385645804
 40
-3.332521385645804
 40
0.0
 40
0.0
 40
0.0
 10
2937.852092302553
 20
1583.656470117817
 30
0.0
 41
1.0
 10
2936.18583160973
 20
1583.656470138102
 30
0.0
 41
0.9999999999999998
 10
2934.519570916906
 20
1583.65647008342
 30
0.0
 41
1.0
  0
ARC
  5
172
330
1F
100
AcDbEntity
  8
Table_Miura_9555-01_2D
100
AcDbCircle
 10
2944.515165542636
 20
1584.255806479968
 30
0.0
 40
10.01354662635185
100
AcDbArc
 50
180.0
 51
183.4313498469807
  0
ENDSEC
  0
SECTION
  2
OBJECTS
  0
DICTIONARY
  5
C
330
0
100
AcDbDictionary
281
     1
  3
ACAD_COLOR
350
17B
  3
ACAD_GROUP
350
D
  3
ACAD_LAYOUT
350
1A
  3
ACAD_MATERIAL
350
177
  3
ACAD_MLEADERSTYLE
350
174
  3
ACAD_MLINESTYLE
350
17
  3
ACAD_PLOTSETTINGS
350
19
  3
ACAD_PLOTSTYLENAME
350
E
  3
ACAD_TABLESTYLE
350
173
  3
ACAD_VISUALSTYLE
350
2A
  3
AcDbVariableDictionary
350
17F
  3
DWGPROPS
350
185
  0
DICTIONARY
  5
17B
102
{ACAD_REACTORS
330
C
102
}
330
C
100
AcDbDictionary
281
     1
  0
DICTIONARY
  5
D
102
{ACAD_REACTORS
330
C
102
}
330
C
100
AcDbDictionary
281
     1
  0
DICTIONARY
  5
1A
102
{ACAD_REACTORS
330
C
102
}
330
C
100
AcDbDictionary
281
     1
  3
Layout1
350
1E
  3
Layout2
350
26
  3
Model
350
22
  0
DICTIONARY
  5
177
102
{ACAD_REACTORS
330
C
102
}
330
C
100
AcDbDictionary
281
     1
  3
ByBlock
350
179
  3
ByLayer
350
178
  3
Global
350
17A
  0
DICTIONARY
  5
174
102
{ACAD_REACTORS
330
C
102
}
330
C
100
AcDbDictionary
281
     1
  0
DICTIONARY
  5
17
102
{ACAD_REACTORS
330
C
102
}
330
C
100
AcDbDictionary
281
     1
  3
Standard
350
18
  0
DICTIONARY
  5
19
102
{ACAD_REACTORS
330
C
102
}
330
C
100
AcDbDictionary
281
     1
  0
ACDBDICTIONARYWDFLT
  5
E
102
{ACAD_REACTORS
330
C
102
}
330
C
100
AcDbDictionary
281
     1
  3
Normal
350
F
100
AcDbDictionaryWithDefault
340
F
  0
DICTIONARY
  5
173
102
{ACAD_REACTORS
330
C
102
}
330
C
100
AcDbDictionary
281
     1
  3
Standard
350
17C
  0
DICTIONARY
  5
2A
102
{ACAD_REACTORS
330
C
102
}
330
C
100
AcDbDictionary
281
     1
  3
2dWireframe
350
2F
  3
3D Hidden
350
31
  3
3dWireframe
350
30
  3
Basic
350
32
  3
Brighten
350
36
  3
ColorChange
350
3A
  3
Conceptual
350
34
  3
Dim
350
35
  3
Facepattern
350
39
  3
Flat
350
2B
  3
FlatWithEdges
350
2C
  3
Gouraud
350
2D
  3
GouraudWithEdges
350
2E
  3
Linepattern
350
38
  3
Realistic
350
33
  3
Thicken
350
37
  0
DICTIONARY
  5
17F
102
{ACAD_REACTORS
330
C
102
}
330
C
100
AcDbDictionary
281
     1
  3
CTABLESTYLE
350
180
  3
DIMASSOC
350
184
  3
HIDETEXT
350
183
  3
INDEXCTL
350
182
  3
SORTENTS
350
181
  0
XRECORD
  5
185
102
{ACAD_REACTORS
330
C
102
}
330
C
100
AcDbXrecord
280
     1
  1
DWGPROPS COOKIE
  2

  3

  4

  6

  7

  8
SCL2
  9

300
=
301
=
302
=
303
=
304
=
305
=
306
=
307
=
308
=
309
=
 40
0.0001288078703704
 41
2457213.716917245
 42
2457213.718548368
  1

 90
        0
  0
LAYOUT
  5
1E
102
{ACAD_XDICTIONARY
360
186
102
}
102
{ACAD_REACTORS
330
1A
102
}
330
1A
100
AcDbPlotSettings
  1

  2
none_device
  4

  6

 40
0.0
 41
0.0
 42
0.0
 43
0.0
 44
0.0
 45
0.0
 46
0.0
 47
0.0
 48
0.0
 49
0.0
140
0.0
141
0.0
142
1.0
143
1.0
 70
   688
 72
     0
 73
     0
 74
     5
  7

 75
    16
147
1.0
148
0.0
149
0.0
100
AcDbLayout
  1
Layout1
 70
     1
 71
     1
 10
0.0
 20
0.0
 11
12.0
 21
9.0
 12
0.0
 22
0.0
 32
0.0
 14
1.000000000000000E+20
 24
1.000000000000000E+20
 34
1.000000000000000E+20
 15
-1.000000000000000E+20
 25
-1.000000000000000E+20
 35
-1.000000000000000E+20
146
0.0
 13
0.0
 23
0.0
 33
0.0
 16
1.0
 26
0.0
 36
0.0
 17
0.0
 27
1.0
 37
0.0
 76
     0
330
1B
  0
LAYOUT
  5
26
102
{ACAD_XDICTIONARY
360
18A
102
}
102
{ACAD_REACTORS
330
1A
102
}
330
1A
100
AcDbPlotSettings
  1

  2
none_device
  4

  6

 40
0.0
 41
0.0
 42
0.0
 43
0.0
 44
0.0
 45
0.0
 46
0.0
 47
0.0
 48
0.0
 49
0.0
140
0.0
141
0.0
142
1.0
143
1.0
 70
   688
 72
     0
 73
     0
 74
     5
  7

 75
    16
147
1.0
148
0.0
149
0.0
100
AcDbLayout
  1
Layout2
 70
     1
 71
     2
 10
0.0
 20
0.0
 11
0.0
 21
0.0
 12
0.0
 22
0.0
 32
0.0
 14
0.0
 24
0.0
 34
0.0
 15
0.0
 25
0.0
 35
0.0
146
0.0
 13
0.0
 23
0.0
 33
0.0
 16
1.0
 26
0.0
 36
0.0
 17
0.0
 27
1.0
 37
0.0
 76
     0
330
23
  0
LAYOUT
  5
22
102
{ACAD_XDICTIONARY
360
188
102
}
102
{ACAD_REACTORS
330
1A
102
}
330
1A
100
AcDbPlotSettings
  1

  2
none_device
  4

  6

 40
0.0
 41
0.0
 42
0.0
 43
0.0
 44
0.0
 45
0.0
 46
0.0
 47
0.0
 48
0.0
 49
0.0
140
0.0
141
0.0
142
1.0
143
1.0
 70
  1712
 72
     0
 73
     0
 74
     0
  7

 75
     0
147
1.0
148
0.0
149
0.0
100
AcDbLayout
  1
Model
 70
     1
 71
     0
 10
0.0
 20
0.0
 11
12.0
 21
9.0
 12
0.0
 22
0.0
 32
0.0
 14
-499.999451473206
 24
-500.0001477286898
 34
0.0
 15
3459.502324986271
 25
1848.033841069164
 35
0.0
146
0.0
 13
0.0
 23
0.0
 33
0.0
 16
1.0
 26
0.0
 36
0.0
 17
0.0
 27
1.0
 37
0.0
 76
     0
330
1F
331
29
  0
MATERIAL
  5
179
102
{ACAD_XDICTIONARY
360
18E
102
}
102
{ACAD_REACTORS
330
177
102
}
330
177
100
AcDbMaterial
  1
ByBlock
  0
MATERIAL
  5
178
102
{ACAD_XDICTIONARY
360
18C
102
}
102
{ACAD_REACTORS
330
177
102
}
330
177
100
AcDbMaterial
  1
ByLayer
  0
MATERIAL
  5
17A
102
{ACAD_XDICTIONARY
360
190
102
}
102
{ACAD_REACTORS
330
177
102
}
330
177
100
AcDbMaterial
  1
Global
  0
MLINESTYLE
  5
18
102
{ACAD_REACTORS
330
17
102
}
330
17
100
AcDbMlineStyle
  2
STANDARD
 70
     0
  3

 62
   256
 51
90.0
 52
90.0
 71
     2
 49
0.5
 62
   256
  6
BYLAYER
 49
-0.5
 62
   256
  6
BYLAYER
  0
ACDBPLACEHOLDER
  5
F
102
{ACAD_REACTORS
330
E
102
}
330
E
  0
TABLESTYLE
  5
17C
102
{ACAD_XDICTIONARY
360
192
102
}
102
{ACAD_REACTORS
330
173
102
}
330
173
100
AcDbTableStyle
  3
Standard
 70
     0
 71
     0
 40
0.06
 41
0.06
280
     0
281
     0
  7
Standard
140
0.18
170
     2
 62
     0
 63
     7
283
     0
274
    -2
284
     1
 64
     0
275
    -2
285
     1
 65
     0
276
    -2
286
     1
 66
     0
277
    -2
287
     1
 67
     0
278
    -2
288
     1
 68
     0
279
    -2
289
     1
 69
     0
  7
Standard
140
0.25
170
     5
 62
     0
 63
     7
283
     0
274
    -2
284
     1
 64
     0
275
    -2
285
     1
 65
     0
276
    -2
286
     1
 66
     0
277
    -2
287
     1
 67
     0
278
    -2
288
     1
 68
     0
279
    -2
289
     1
 69
     0
  7
Standard
140
0.18
170
     5
 62
     0
 63
     7
283
     0
274
    -2
284
     1
 64
     0
275
    -2
285
     1
 65
     0
276
    -2
286
     1
 66
     0
277
    -2
287
     1
 67
     0
278
    -2
288
     1
 68
     0
279
    -2
289
     1
 69
     0
  0
VISUALSTYLE
  5
2F
102
{ACAD_REACTORS
330
2A
102
}
330
2A
100
AcDbVisualStyle
  2
2dWireframe
 70
     4
 71
     0
 72
     2
 73
     0
 90
        0
 40
-0.6
 41
-30.0
 62
     5
 63
     7
 74
     1
 91
        4
 64
     7
 65
   257
 75
     1
175
     1
 42
1.0
 92
        0
 66
   257
 43
1.0
 76
     1
 77
     6
 78
     2
 67
     7
 79
     5
170
     0
171
     0
290
     0
174
     0
 93
        1
 44
0.0
173
     0
291
     0
 45
0.0
1001
ACAD
1000
AcDbSavedByObjectVersion
1070
     0
1000
AcDbSavedByObjectVersion
1070
     0
  0
VISUALSTYLE
  5
31
102
{ACAD_REACTORS
330
2A
102
}
330
2A
100
AcDbVisualStyle
  2
3D Hidden
 70
     6
 71
     1
 72
     2
 73
     2
 90
        0
 40
-0.6
 41
-30.0
 62
     5
 63
     7
 74
     2
 91
        2
 64
     7
 65
   257
 75
     2
175
     1
 42
40.0
 92
        0
 66
   257
 43
1.0
 76
     1
 77
     6
 78
     2
 67
     7
 79
     3
170
     0
171
     0
290
     0
174
     0
 93
        1
 44
0.0
173
     0
291
     0
 45
0.0
1001
ACAD
1000
AcDbSavedByObjectVersion
1070
     0
1000
AcDbSavedByObjectVersion
1070
     0
  0
VISUALSTYLE
  5
30
102
{ACAD_REACTORS
330
2A
102
}
330
2A
100
AcDbVisualStyle
  2
3dWireframe
 70
     5
 71
     0
 72
     2
 73
     0
 90
        0
 40
-0.6
 41
-30.0
 62
     5
 63
     7
 74
     1
 91
        4
 64
     7
 65
   257
 75
     1
175
     1
 42
1.0
 92
        0
 66
   257
 43
1.0
 76
     1
 77
     6
 78
     2
 67
     7
 79
     5
170
     0
171
     0
290
     0
174
     0
 93
        1
 44
0.0
173
     0
291
     0
 45
0.0
1001
ACAD
1000
AcDbSavedByObjectVersion
1070
     0
1000
AcDbSavedByObjectVersion
1070
     0
  0
VISUALSTYLE
  5
32
102
{ACAD_REACTORS
330
2A
102
}
330
2A
100
AcDbVisualStyle
  2
Basic
 70
     7
 71
     1
 72
     0
 73
     1
 90
        0
 40
-0.6
 41
-30.0
 62
     5
 63
     7
 74
     0
 91
        4
 64
     7
 65
   257
 75
     1
175
     1
 42
1.0
 92
        8
 66
     7
 43
1.0
 76
     1
 77
     6
 78
     2
 67
     7
 79
     5
170
     0
171
     0
290
     0
174
     0
 93
        1
 44
0.0
173
     0
291
     1
 45
0.0
1001
ACAD
1000
AcDbSavedByObjectVersion
1070
     0
1000
AcDbSavedByObjectVersion
1070
     0
  0
VISUALSTYLE
  5
36
102
{ACAD_REACTORS
330
2A
102
}
330
2A
100
AcDbVisualStyle
  2
Brighten
 70
    12
 71
     2
 72
     2
 73
     0
 90
        0
 40
-0.6
 41
-30.0
 62
     5
 63
     7
 74
     1
 91
        4
 64
     7
 65
   257
 75
     1
175
     1
 42
1.0
 92
        8
 66
     7
 43
1.0
 76
     1
 77
     6
 78
     2
 67
     7
 79
     5
170
     0
171
     0
290
     0
174
     0
 93
        1
 44
50.0
173
     0
291
     1
 45
0.0
1001
ACAD
1000
AcDbSavedByObjectVersion
1070
     0
1000
AcDbSavedByObjectVersion
1070
     0
  0
VISUALSTYLE
  5
3A
102
{ACAD_REACTORS
330
2A
102
}
330
2A
100
AcDbVisualStyle
  2
ColorChange
 70
    16
 71
     2
 72
     2
 73
     3
 90
        0
 40
-0.6
 41
-30.0
 62
     5
 63
     8
 74
     1
 91
        4
 64
     7
 65
   257
 75
     1
175
     1
 42
1.0
 92
        8
 66
     8
 43
1.0
 76
     1
 77
     6
 78
     2
 67
     7
 79
     5
170
     0
171
     0
290
     0
174
     0
 93
        1
 44
0.0
173
     0
291
     1
 45
0.0
1001
ACAD
1000
AcDbSavedByObjectVersion
1070
     0
1000
AcDbSavedByObjectVersion
1070
     0
  0
VISUALSTYLE
  5
34
102
{ACAD_REACTORS
330
2A
102
}
330
2A
100
AcDbVisualStyle
  2
Conceptual
 70
     9
 71
     3
 72
     2
 73
     0
 90
        0
 40
-0.6
 41
-30.0
 62
     5
 63
     7
 74
     2
 91
        2
 64
     7
 65
   257
 75
     1
175
     1
 42
40.0
 92
        8
 66
     7
 43
1.0
 76
     1
 77
     6
 78
     2
 67
     7
 79
     3
170
     0
171
     0
290
     0
174
     0
 93
        1
 44
0.0
173
     0
291
     0
 45
0.0
1001
ACAD
1000
AcDbSavedByObjectVersion
1070
     0
1000
AcDbSavedByObjectVersion
1070
     0
  0
VISUALSTYLE
  5
35
102
{ACAD_REACTORS
330
2A
102
}
330
2A
100
AcDbVisualStyle
  2
Dim
 70
    11
 71
     2
 72
     2
 73
     0
 90
        0
 40
-0.6
 41
-30.0
 62
     5
 63
     7
 74
     1
 91
        4
 64
     7
 65
   257
 75
     1
175
     1
 42
1.0
 92
        8
 66
     7
 43
1.0
 76
     1
 77
     6
 78
     2
 67
     7
 79
     5
170
     0
171
     0
290
     0
174
     0
 93
        1
 44
-50.0
173
     0
291
     1
 45
0.0
1001
ACAD
1000
AcDbSavedByObjectVersion
1070
     0
1000
AcDbSavedByObjectVersion
1070
     0
  0
VISUALSTYLE
  5
39
102
{ACAD_REACTORS
330
2A
102
}
330
2A
100
AcDbVisualStyle
  2
Facepattern
 70
    15
 71
     2
 72
     2
 73
     0
 90
        0
 40
-0.6
 41
-30.0
 62
     5
 63
     7
 74
     1
 91
        4
 64
     7
 65
   257
 75
     1
175
     1
 42
1.0
 92
        8
 66
     7
 43
1.0
 76
     1
 77
     6
 78
     2
 67
     7
 79
     5
170
     0
171
     0
290
     0
174
     0
 93
        1
 44
0.0
173
     0
291
     1
 45
0.0
1001
ACAD
1000
AcDbSavedByObjectVersion
1070
     0
1000
AcDbSavedByObjectVersion
1070
     0
  0
VISUALSTYLE
  5
2B
102
{ACAD_REACTORS
330
2A
102
}
330
2A
100
AcDbVisualStyle
  2
Flat
 70
     0
 71
     2
 72
     1
 73
     1
 90
        2
 40
-0.6
 41
30.0
 62
     5
 63
     7
 74
     0
 91
        4
 64
     7
 65
   257
 75
     1
175
     1
 42
1.0
 92
        8
 66
     7
 43
1.0
 76
     1
 77
     6
 78
     2
 67
     7
 79
     5
170
     0
171
     0
290
     0
174
     0
 93
       13
 44
0.0
173
     0
291
     1
 45
0.0
1001
ACAD
1000
AcDbSavedByObjectVersion
1070
     0
1000
AcDbSavedByObjectVersion
1070
     0
  0
VISUALSTYLE
  5
2C
102
{ACAD_REACTORS
330
2A
102
}
330
2A
100
AcDbVisualStyle
  2
FlatWithEdges
 70
     1
 71
     2
 72
     1
 73
     1
 90
        2
 40
-0.6
 41
30.0
 62
     5
 63
     7
 74
     1
 91
        4
 64
     7
 65
   257
 75
     1
175
     1
 42
1.0
 92
        0
 66
   257
 43
1.0
 76
     1
 77
     6
 78
     2
 67
     7
 79
     5
170
     0
171
     0
290
     0
174
     0
 93
       13
 44
0.0
173
     0
291
     1
 45
0.0
1001
ACAD
1000
AcDbSavedByObjectVersion
1070
     0
1000
AcDbSavedByObjectVersion
1070
     0
  0
VISUALSTYLE
  5
2D
102
{ACAD_REACTORS
330
2A
102
}
330
2A
100
AcDbVisualStyle
  2
Gouraud
 70
     2
 71
     2
 72
     2
 73
     1
 90
        2
 40
-0.6
 41
30.0
 62
     5
 63
     7
 74
     0
 91
        4
 64
     7
 65
   257
 75
     1
175
     1
 42
1.0
 92
        0
 66
     7
 43
1.0
 76
     1
 77
     6
 78
     2
 67
     7
 79
     5
170
     0
171
     0
290
     0
174
     0
 93
       13
 44
0.0
173
     0
291
     1
 45
0.0
1001
ACAD
1000
AcDbSavedByObjectVersion
1070
     0
1000
AcDbSavedByObjectVersion
1070
     0
  0
VISUALSTYLE
  5
2E
102
{ACAD_REACTORS
330
2A
102
}
330
2A
100
AcDbVisualStyle
  2
GouraudWithEdges
 70
     3
 71
     2
 72
     2
 73
     1
 90
        2
 40
-0.6
 41
30.0
 62
     5
 63
     7
 74
     1
 91
        4
 64
     7
 65
   257
 75
     1
175
     1
 42
1.0
 92
        0
 66
   257
 43
1.0
 76
     1
 77
     6
 78
     2
 67
     7
 79
     5
170
     0
171
     0
290
     0
174
     0
 93
       13
 44
0.0
173
     0
291
     1
 45
0.0
1001
ACAD
1000
AcDbSavedByObjectVersion
1070
     0
1000
AcDbSavedByObjectVersion
1070
     0
  0
VISUALSTYLE
  5
38
102
{ACAD_REACTORS
330
2A
102
}
330
2A
100
AcDbVisualStyle
  2
Linepattern
 70
    14
 71
     2
 72
     2
 73
     0
 90
        0
 40
-0.6
 41
-30.0
 62
     5
 63
     7
 74
     1
 91
        4
 64
     7
 65
   257
 75
     7
175
     7
 42
1.0
 92
        8
 66
     7
 43
1.0
 76
     1
 77
     6
 78
     2
 67
     7
 79
     5
170
     0
171
     0
290
     0
174
     0
 93
        1
 44
0.0
173
     0
291
     1
 45
0.0
1001
ACAD
1000
AcDbSavedByObjectVersion
1070
     0
1000
AcDbSavedByObjectVersion
1070
     0
  0
VISUALSTYLE
  5
33
102
{ACAD_REACTORS
330
2A
102
}
330
2A
100
AcDbVisualStyle
  2
Realistic
 70
     8
 71
     2
 72
     2
 73
     0
 90
        0
 40
-0.6
 41
-30.0
 62
     5
 63
     7
 74
     1
 91
        0
 64
     7
 65
   257
 75
     1
175
     1
 42
1.0
 92
        8
 66
     8
 43
1.0
 76
     1
 77
     6
 78
     2
 67
     7
 79
     5
170
     0
171
     0
290
     0
174
     0
 93
       13
 44
0.0
173
     0
291
     0
 45
0.0
1001
ACAD
1000
AcDbSavedByObjectVersion
1070
     0
1000
AcDbSavedByObjectVersion
1070
     0
  0
VISUALSTYLE
  5
37
102
{ACAD_REACTORS
330
2A
102
}
330
2A
100
AcDbVisualStyle
  2
Thicken
 70
    13
 71
     2
 72
     2
 73
     0
 90
        0
 40
-0.6
 41
-30.0
 62
     5
 63
     7
 74
     1
 91
        4
 64
     7
 65
   257
 75
     1
175
     1
 42
1.0
 92
       12
 66
     7
 43
1.0
 76
     1
 77
     6
 78
     2
 67
     7
 79
     5
170
     0
171
     0
290
     0
174
     0
 93
        1
 44
0.0
173
     0
291
     1
 45
0.0
1001
ACAD
1000
AcDbSavedByObjectVersion
1070
     0
1000
AcDbSavedByObjectVersion
1070
     0
  0
DICTIONARYVAR
  5
180
102
{ACAD_REACTORS
330
17F
102
}
330
17F
100
DictionaryVariables
280
     0
  1
STANDARD
  0
DICTIONARYVAR
  5
184
102
{ACAD_REACTORS
330
17F
102
}
330
17F
100
DictionaryVariables
280
     0
  1
2
  0
DICTIONARYVAR
  5
183
102
{ACAD_REACTORS
330
17F
102
}
330
17F
100
DictionaryVariables
280
     0
  1
1
  0
DICTIONARYVAR
  5
182
102
{ACAD_REACTORS
330
17F
102
}
330
17F
100
DictionaryVariables
280
     0
  1
0
  0
DICTIONARYVAR
  5
181
102
{ACAD_REACTORS
330
17F
102
}
330
17F
100
DictionaryVariables
280
     0
  1
127
  0
DICTIONARY
  5
186
330
1E
100
AcDbDictionary
280
     1
281
     1
  3
ACAD_XREC_ROUNDTRIP
360
187
  0
DICTIONARY
  5
18A
330
26
100
AcDbDictionary
280
     1
281
     1
  3
ACAD_XREC_ROUNDTRIP
360
18B
  0
DICTIONARY
  5
188
330
22
100
AcDbDictionary
280
     1
281
     1
  3
ACAD_XREC_ROUNDTRIP
360
189
  0
DICTIONARY
  5
18E
330
179
100
AcDbDictionary
280
     1
281
     1
  3
ACAD_XREC_ROUNDTRIP
360
18F
  0
DICTIONARY
  5
18C
330
178
100
AcDbDictionary
280
     1
281
     1
  3
ACAD_XREC_ROUNDTRIP
360
18D
  0
DICTIONARY
  5
190
330
17A
100
AcDbDictionary
280
     1
281
     1
  3
ACAD_XREC_ROUNDTRIP
360
191
  0
DICTIONARY
  5
192
330
17C
100
AcDbDictionary
280
     1
281
     1
  3
ACAD_XREC_ROUNDTRIP
360
193
  0
XRECORD
  5
187
102
{ACAD_REACTORS
330
186
102
}
330
186
100
AcDbXrecord
280
     1
102
SHADEPLOT
 70
     0
102
SHADEPLOTRESLEVEL
 70
     2
102
SHADEPLOTCUSTOMDPI
 70
   300
  0
XRECORD
  5
18B
102
{ACAD_REACTORS
330
18A
102
}
330
18A
100
AcDbXrecord
280
     1
102
SHADEPLOT
 70
     0
102
SHADEPLOTRESLEVEL
 70
     2
102
SHADEPLOTCUSTOMDPI
 70
   300
  0
XRECORD
  5
189
102
{ACAD_REACTORS
330
188
102
}
330
188
100
AcDbXrecord
280
     1
102
SHADEPLOT
 70
     0
102
SHADEPLOTRESLEVEL
 70
     2
102
SHADEPLOTCUSTOMDPI
 70
   300
  0
XRECORD
  5
18F
102
{ACAD_REACTORS
330
18E
102
}
330
18E
100
AcDbXrecord
280
     1
102
MATERIAL
148
0.0
149
0.0
149
0.0
 93
        0
 94
       63
282
     0
 72
     1
 77
     1
171
     1
175
     1
179
     1
273
     0
  0
XRECORD
  5
18D
102
{ACAD_REACTORS
330
18C
102
}
330
18C
100
AcDbXrecord
280
     1
102
MATERIAL
148
0.0
149
0.0
149
0.0
 93
        0
 94
       63
282
     0
 72
     1
 77
     1
171
     1
175
     1
179
     1
273
     0
  0
XRECORD
  5
191
102
{ACAD_REACTORS
330
190
102
}
330
190
100
AcDbXrecord
280
     1
102
MATERIAL
148
0.0
149
0.0
149
0.0
 93
        0
 94
       63
282
     0
 72
     1
 77
     1
171
     1
175
     1
179
     1
273
     0
  0
XRECORD
  5
193
102
{ACAD_REACTORS
330
192
102
}
330
192
100
AcDbXrecord
280
     1
102
ACAD_ROUNDTRIP_PRE2007_TABLESTYLE
 90
      512
 91
        0
  1

 92
      512
 93
        0
  2

 94
      512
 95
        0
  3

  0
ENDSEC
  0
EOF
