  0
SECTION
  2
HEADER
  9
$ACADVER
  1
AC1018
  9
$ACADMAINTVER
 70
     0
  9
$DWGCODEPAGE
  3
ANSI_1252
  9
$INSBASE
 10
0.0
 20
0.0
 30
0.0
  9
$EXTMIN
 10
-350.0
 20
-350.0
 30
0.0
  9
$EXTMAX
 10
2457.315693568679
 20
2272.537390964269
 30
0.0
  9
$LIMMIN
 10
0.0
 20
0.0
  9
$LIMMAX
 10
12.0
 20
9.0
  9
$ORTHOMODE
 70
     0
  9
$REGENMODE
 70
     1
  9
$FILLMODE
 70
     1
  9
$QTEXTMODE
 70
     0
  9
$MIRRTEXT
 70
     1
  9
$LTSCALE
 40
1.0
  9
$ATTMODE
 70
     1
  9
$TEXTSIZE
 40
0.2
  9
$TRACEWID
 40
0.05
  9
$TEXTSTYLE
  7
Standard
  9
$CLAYER
  8
Table_Miura_9590-71_2D
  9
$CELTYPE
  6
ByLayer
  9
$CECOLOR
 62
   256
  9
$CELTSCALE
 40
1.0
  9
$DISPSILH
 70
     0
  9
$DIMSCALE
 40
1.0
  9
$DIMASZ
 40
0.18
  9
$DIMEXO
 40
0.0625
  9
$DIMDLI
 40
0.38
  9
$DIMRND
 40
0.0
  9
$DIMDLE
 40
0.0
  9
$DIMEXE
 40
0.18
  9
$DIMTP
 40
0.0
  9
$DIMTM
 40
0.0
  9
$DIMTXT
 40
0.18
  9
$DIMCEN
 40
0.09
  9
$DIMTSZ
 40
0.0
  9
$DIMTOL
 70
     0
  9
$DIMLIM
 70
     0
  9
$DIMTIH
 70
     1
  9
$DIMTOH
 70
     1
  9
$DIMSE1
 70
     0
  9
$DIMSE2
 70
     0
  9
$DIMTAD
 70
     0
  9
$DIMZIN
 70
     0
  9
$DIMBLK
  1

  9
$DIMASO
 70
     1
  9
$DIMSHO
 70
     1
  9
$DIMPOST
  1

  9
$DIMAPOST
  1

  9
$DIMALT
 70
     0
  9
$DIMALTD
 70
     2
  9
$DIMALTF
 40
25.4
  9
$DIMLFAC
 40
1.0
  9
$DIMTOFL
 70
     0
  9
$DIMTVP
 40
0.0
  9
$DIMTIX
 70
     0
  9
$DIMSOXD
 70
     0
  9
$DIMSAH
 70
     0
  9
$DIMBLK1
  1

  9
$DIMBLK2
  1

  9
$DIMSTYLE
  2
Standard
  9
$DIMCLRD
 70
     0
  9
$DIMCLRE
 70
     0
  9
$DIMCLRT
 70
     0
  9
$DIMTFAC
 40
1.0
  9
$DIMGAP
 40
0.09
  9
$DIMJUST
 70
     0
  9
$DIMSD1
 70
     0
  9
$DIMSD2
 70
     0
  9
$DIMTOLJ
 70
     1
  9
$DIMTZIN
 70
     0
  9
$DIMALTZ
 70
     0
  9
$DIMALTTZ
 70
     0
  9
$DIMUPT
 70
     0
  9
$DIMDEC
 70
     4
  9
$DIMTDEC
 70
     4
  9
$DIMALTU
 70
     2
  9
$DIMALTTD
 70
     2
  9
$DIMTXSTY
  7
Standard
  9
$DIMAUNIT
 70
     0
  9
$DIMADEC
 70
     0
  9
$DIMALTRND
 40
0.0
  9
$DIMAZIN
 70
     0
  9
$DIMDSEP
 70
    46
  9
$DIMATFIT
 70
     3
  9
$DIMFRAC
 70
     0
  9
$DIMLDRBLK
  1

  9
$DIMLUNIT
 70
     2
  9
$DIMLWD
 70
    -2
  9
$DIMLWE
 70
    -2
  9
$DIMTMOVE
 70
     2
  9
$LUNITS
 70
     2
  9
$LUPREC
 70
     3
  9
$SKETCHINC
 40
0.1
  9
$FILLETRAD
 40
0.5
  9
$AUNITS
 70
     0
  9
$AUPREC
 70
     0
  9
$MENU
  1
.
  9
$ELEVATION
 40
0.0
  9
$PELEVATION
 40
0.0
  9
$THICKNESS
 40
0.0
  9
$LIMCHECK
 70
     0
  9
$CHAMFERA
 40
0.5
  9
$CHAMFERB
 40
0.5
  9
$CHAMFERC
 40
1.0
  9
$CHAMFERD
 40
0.0
  9
$SKPOLY
 70
     0
  9
$TDCREATE
 40
2457213.746884757
  9
$TDUCREATE
 40
2457213.663551424
  9
$TDUPDATE
 40
2457213.746884768
  9
$TDUUPDATE
 40
2457213.663551435
  9
$TDINDWG
 40
0.0000000116
  9
$TDUSRTIMER
 40
0.0000000116
  9
$USRTIMER
 70
     1
  9
$ANGBASE
 50
0.0
  9
$ANGDIR
 70
     0
  9
$PDMODE
 70
     0
  9
$PDSIZE
 40
0.0
  9
$PLINEWID
 40
0.0
  9
$SPLFRAME
 70
     0
  9
$SPLINETYPE
 70
     6
  9
$SPLINESEGS
 70
     8
  9
$HANDSEED
  5
18A
  9
$SURFTAB1
 70
     6
  9
$SURFTAB2
 70
     6
  9
$SURFTYPE
 70
     6
  9
$SURFU
 70
     6
  9
$SURFV
 70
     6
  9
$UCSBASE
  2

  9
$UCSNAME
  2

  9
$UCSORG
 10
0.0
 20
0.0
 30
0.0
  9
$UCSXDIR
 10
1.0
 20
0.0
 30
0.0
  9
$UCSYDIR
 10
0.0
 20
1.0
 30
0.0
  9
$UCSORTHOREF
  2

  9
$UCSORTHOVIEW
 70
     0
  9
$UCSORGTOP
 10
0.0
 20
0.0
 30
0.0
  9
$UCSORGBOTTOM
 10
0.0
 20
0.0
 30
0.0
  9
$UCSORGLEFT
 10
0.0
 20
0.0
 30
0.0
  9
$UCSORGRIGHT
 10
0.0
 20
0.0
 30
0.0
  9
$UCSORGFRONT
 10
0.0
 20
0.0
 30
0.0
  9
$UCSORGBACK
 10
0.0
 20
0.0
 30
0.0
  9
$PUCSBASE
  2

  9
$PUCSNAME
  2

  9
$PUCSORG
 10
0.0
 20
0.0
 30
0.0
  9
$PUCSXDIR
 10
1.0
 20
0.0
 30
0.0
  9
$PUCSYDIR
 10
0.0
 20
1.0
 30
0.0
  9
$PUCSORTHOREF
  2

  9
$PUCSORTHOVIEW
 70
     0
  9
$PUCSORGTOP
 10
0.0
 20
0.0
 30
0.0
  9
$PUCSORGBOTTOM
 10
0.0
 20
0.0
 30
0.0
  9
$PUCSORGLEFT
 10
0.0
 20
0.0
 30
0.0
  9
$PUCSORGRIGHT
 10
0.0
 20
0.0
 30
0.0
  9
$PUCSORGFRONT
 10
0.0
 20
0.0
 30
0.0
  9
$PUCSORGBACK
 10
0.0
 20
0.0
 30
0.0
  9
$USERI1
 70
     0
  9
$USERI2
 70
     0
  9
$USERI3
 70
     0
  9
$USERI4
 70
     0
  9
$USERI5
 70
     0
  9
$USERR1
 40
0.0
  9
$USERR2
 40
0.0
  9
$USERR3
 40
0.0
  9
$USERR4
 40
0.0
  9
$USERR5
 40
0.0
  9
$WORLDVIEW
 70
     1
  9
$SHADEDGE
 70
     3
  9
$SHADEDIF
 70
    70
  9
$TILEMODE
 70
     1
  9
$MAXACTVP
 70
    64
  9
$PINSBASE
 10
0.0
 20
0.0
 30
0.0
  9
$PLIMCHECK
 70
     0
  9
$PEXTMIN
 10
1.000000000000000E+20
 20
1.000000000000000E+20
 30
1.000000000000000E+20
  9
$PEXTMAX
 10
-1.000000000000000E+20
 20
-1.000000000000000E+20
 30
-1.000000000000000E+20
  9
$PLIMMIN
 10
0.0
 20
0.0
  9
$PLIMMAX
 10
12.0
 20
9.0
  9
$UNITMODE
 70
     0
  9
$VISRETAIN
 70
     1
  9
$PLINEGEN
 70
     0
  9
$PSLTSCALE
 70
     1
  9
$TREEDEPTH
 70
  3020
  9
$CMLSTYLE
  2
Standard
  9
$CMLJUST
 70
     0
  9
$CMLSCALE
 40
1.0
  9
$PROXYGRAPHICS
 70
     1
  9
$MEASUREMENT
 70
     0
  9
$CELWEIGHT
370
    -1
  9
$ENDCAPS
280
     0
  9
$JOINSTYLE
280
     0
  9
$LWDISPLAY
290
     0
  9
$INSUNITS
 70
     4
  9
$HYPERLINKBASE
  1

  9
$STYLESHEET
  1

  9
$XEDIT
290
     1
  9
$CEPSNTYPE
380
     0
  9
$PSTYLEMODE
290
     1
  9
$FINGERPRINTGUID
  2
{3D69F58D-367A-48EE-AACC-898907472606}
  9
$VERSIONGUID
  2
{FAEB1C32-E019-11D5-929B-00C0DF256EC4}
  9
$EXTNAMES
290
     1
  9
$PSVPSCALE
 40
0.0
  9
$OLESTARTUP
290
     0
  9
$SORTENTS
280
   127
  9
$INDEXCTL
280
     0
  9
$HIDETEXT
280
     1
  9
$XCLIPFRAME
290
     0
  9
$HALOGAP
280
     0
  9
$OBSCOLOR
 70
   257
  9
$OBSLTYPE
280
     0
  9
$INTERSECTIONDISPLAY
280
     0
  9
$INTERSECTIONCOLOR
 70
   257
  9
$DIMASSOC
280
     2
  9
$PROJECTNAME
  1

  0
ENDSEC
  0
SECTION
  2
CLASSES
  0
CLASS
  1
ACDBDICTIONARYWDFLT
  2
AcDbDictionaryWithDefault
  3
ObjectDBX Classes
 90
        0
 91
        4
280
     0
281
     0
  0
CLASS
  1
VISUALSTYLE
  2
AcDbVisualStyle
  3
ObjectDBX Classes
 90
     4095
 91
        4
280
     0
281
     0
  0
ENDSEC
  0
SECTION
  2
TABLES
  0
TABLE
  2
VPORT
  5
8
330
0
100
AcDbSymbolTable
 70
     1
  0
VPORT
  5
29
330
8
100
AcDbSymbolTableRecord
100
AcDbViewportTableRecord
  2
*Active
 70
     0
 10
0.0
 20
0.0
 11
1.0
 21
1.0
 12
1053.65784678434
 22
961.2686954821347
 13
0.0
 23
0.0
 14
0.5
 24
0.5
 15
0.5
 25
0.5
 16
0.0
 26
0.0
 36
1.0
 17
0.0
 27
0.0
 37
0.0
 40
2674.988138783555
 41
1.070457833410135
 42
50.0
 43
0.0
 44
0.0
 50
0.0
 51
0.0
 71
     0
 72
   100
 73
     1
 74
     3
 75
     0
 76
     0
 77
     0
 78
     0
281
     0
 65
     1
110
0.0
120
0.0
130
0.0
111
1.0
121
0.0
131
0.0
112
0.0
122
1.0
132
0.0
 79
     0
146
0.0
  0
ENDTAB
  0
TABLE
  2
LTYPE
  5
5
330
0
100
AcDbSymbolTable
 70
     1
  0
LTYPE
  5
14
330
5
100
AcDbSymbolTableRecord
100
AcDbLinetypeTableRecord
  2
ByBlock
 70
     0
  3

 72
    65
 73
     0
 40
0.0
  0
LTYPE
  5
15
330
5
100
AcDbSymbolTableRecord
100
AcDbLinetypeTableRecord
  2
ByLayer
 70
     0
  3

 72
    65
 73
     0
 40
0.0
  0
LTYPE
  5
16
330
5
100
AcDbSymbolTableRecord
100
AcDbLinetypeTableRecord
  2
Continuous
 70
     0
  3
Solid line
 72
    65
 73
     0
 40
0.0
  0
ENDTAB
  0
TABLE
  2
LAYER
  5
2
330
0
100
AcDbSymbolTable
 70
     2
  0
LAYER
  5
10
330
2
100
AcDbSymbolTableRecord
100
AcDbLayerTableRecord
  2
0
 70
     0
 62
     7
  6
Continuous
370
    -3
390
F
  0
LAYER
  5
3B
330
2
100
AcDbSymbolTableRecord
100
AcDbLayerTableRecord
  2
Table_Miura_9590-71_2D
 70
     0
 62
     7
  6
Continuous
370
    -3
390
F
  0
ENDTAB
  0
TABLE
  2
STYLE
  5
3
330
0
100
AcDbSymbolTable
 70
     1
  0
STYLE
  5
11
330
3
100
AcDbSymbolTableRecord
100
AcDbTextStyleTableRecord
  2
Standard
 70
     0
 40
0.0
 41
1.0
 50
0.0
 71
     0
 42
0.2
  3
txt
  4

  0
ENDTAB
  0
TABLE
  2
VIEW
  5
6
330
0
100
AcDbSymbolTable
 70
     0
  0
ENDTAB
  0
TABLE
  2
UCS
  5
7
330
0
100
AcDbSymbolTable
 70
     0
  0
ENDTAB
  0
TABLE
  2
APPID
  5
9
330
0
100
AcDbSymbolTable
 70
     1
  0
APPID
  5
12
330
9
100
AcDbSymbolTableRecord
100
AcDbRegAppTableRecord
  2
ACAD
 70
     0
  0
ENDTAB
  0
TABLE
  2
DIMSTYLE
  5
A
330
0
100
AcDbSymbolTable
 70
     1
100
AcDbDimStyleTable
  0
DIMSTYLE
105
27
330
A
100
AcDbSymbolTableRecord
100
AcDbDimStyleTableRecord
  2
Standard
 70
     0
340
11
  0
ENDTAB
  0
TABLE
  2
BLOCK_RECORD
  5
1
330
0
100
AcDbSymbolTable
 70
     1
  0
BLOCK_RECORD
  5
1F
330
1
100
AcDbSymbolTableRecord
100
AcDbBlockTableRecord
  2
*Model_Space
340
22
  0
BLOCK_RECORD
  5
1B
330
1
100
AcDbSymbolTableRecord
100
AcDbBlockTableRecord
  2
*Paper_Space
340
1E
  0
BLOCK_RECORD
  5
23
330
1
100
AcDbSymbolTableRecord
100
AcDbBlockTableRecord
  2
*Paper_Space0
340
26
  0
ENDTAB
  0
ENDSEC
  0
SECTION
  2
BLOCKS
  0
BLOCK
  5
20
330
1F
100
AcDbEntity
  8
0
100
AcDbBlockBegin
  2
*Model_Space
 70
     0
 10
0.0
 20
0.0
 30
0.0
  3
*Model_Space
  1

  0
ENDBLK
  5
21
330
1F
100
AcDbEntity
  8
0
100
AcDbBlockEnd
  0
BLOCK
  5
1C
330
1B
100
AcDbEntity
 67
     1
  8
0
100
AcDbBlockBegin
  2
*Paper_Space
 70
     0
 10
0.0
 20
0.0
 30
0.0
  3
*Paper_Space
  1

  0
ENDBLK
  5
1D
330
1B
100
AcDbEntity
 67
     1
  8
0
100
AcDbBlockEnd
  0
BLOCK
  5
24
330
23
100
AcDbEntity
  8
0
100
AcDbBlockBegin
  2
*Paper_Space0
 70
     0
 10
0.0
 20
0.0
 30
0.0
  3
*Paper_Space0
  1

  0
ENDBLK
  5
25
330
23
100
AcDbEntity
  8
0
100
AcDbBlockEnd
  0
ENDSEC
  0
SECTION
  2
ENTITIES
  0
LINE
  5
3C
330
1F
100
AcDbEntity
  8
Table_Miura_9590-71_2D
100
AcDbLine
 10
-24.99942602276951
 20
1572.677420163447
 30
0.0
 11
-24.99942602276951
 21
2232.537390970419
 31
0.0
  0
LINE
  5
3D
330
1F
100
AcDbEntity
  8
Table_Miura_9590-71_2D
100
AcDbLine
 10
25.00032668345648
 20
2232.537390970417
 30
0.0
 11
25.00032668345648
 21
1572.671167069213
 31
0.0
  0
LINE
  5
3E
330
1F
100
AcDbEntity
  8
Table_Miura_9590-71_2D
100
AcDbLine
 10
1002.675596651636
 20
2232.537390915918
 30
0.0
 11
1002.676059932826
 21
1574.327142305905
 31
0.0
  0
LINE
  5
3F
330
1F
100
AcDbEntity
  8
Table_Miura_9590-71_2D
100
AcDbLine
 10
1052.675600777815
 20
1569.327142289656
 30
0.0
 11
1052.675600783082
 21
2232.537390915918
 31
0.0
  0
LINE
  5
40
330
1F
100
AcDbEntity
  8
Table_Miura_9590-71_2D
100
AcDbLine
 10
2082.315367196998
 20
1569.926478711167
 30
0.0
 11
2082.315367196998
 21
2232.537390964269
 31
0.0
  0
LINE
  5
41
330
1F
100
AcDbEntity
  8
Table_Miura_9590-71_2D
100
AcDbLine
 10
2132.315119903224
 20
2232.537390964269
 30
0.0
 11
2132.315119903224
 21
1569.926478711167
 31
0.0
  0
SPLINE
  5
42
330
1F
100
AcDbEntity
  8
Table_Miura_9590-71_2D
100
AcDbSpline
210
0.0
220
0.0
230
1.0
 70
    28
 71
     2
 72
     6
 73
     3
 74
     0
 42
0.0000000001
 43
0.0000000001
 40
-0.0016858811199636
 40
-0.0016858811199636
 40
-0.0016858811199636
 40
0.0
 40
0.0
 40
0.0
 10
-137.5019586246008
 20
2256.537391740034
 30
0.0
 41
1.0
 10
-137.5028015646303
 20
2256.53739268559
 30
0.0
 41
1.0
 10
-137.5036445046599
 20
2256.537393631035
 30
0.0
 41
1.0
  0
SPLINE
  5
43
330
1F
100
AcDbEntity
  8
Table_Miura_9590-71_2D
100
AcDbSpline
210
0.0
220
0.0
230
1.0
 70
    12
 71
     2
 72
     6
 73
     3
 74
     0
 42
0.0000000001
 43
0.0000000001
 40
0.0
 40
0.0
 40
0.0
 40
3.923330453739822
 40
3.923330453739822
 40
3.923330453739822
 10
-137.5036445046599
 20
2256.537393631035
 30
0.0
 41
1.0
 10
-139.999991805237
 20
2256.541041005259
 30
0.0
 41
0.7076212603681254
 10
-139.9999890541424
 20
2259.037390970417
 30
0.0
 41
0.9999999999904636
  0
SPLINE
  5
44
330
1F
100
AcDbEntity
  8
Table_Miura_9590-71_2D
100
AcDbSpline
210
0.0
220
0.0
230
1.0
 70
    24
 71
     2
 72
     6
 73
     3
 74
     0
 42
0.0000000001
 43
0.0000000001
 40
0.0
 40
0.0
 40
0.0
 40
3.499999999999773
 40
3.499999999999773
 40
3.499999999999773
 10
-139.9999890541421
 20
2259.037390970417
 30
0.0
 10
-139.9998258691289
 20
2260.787390970417
 30
0.0
 10
-139.9996626841157
 20
2262.537390970417
 30
0.0
  0
SPLINE
  5
45
330
1F
100
AcDbEntity
  8
Table_Miura_9590-71_2D
100
AcDbSpline
210
0.0
220
0.0
230
1.0
 70
    24
 71
     3
 72
     8
 73
     4
 74
     0
 42
0.0000000001
 43
0.0000000001
 40
-279.9993259299167
 40
-279.9993259299167
 40
-279.9993259299167
 40
-279.9993259299167
 40
0.0
 40
0.0
 40
0.0
 40
0.0
 10
-139.9996626841157
 20
2262.537390970417
 30
0.0
 10
-46.66621697483606
 20
2262.537390970416
 30
0.0
 10
46.66689166846936
 20
2262.537390970415
 30
0.0
 10
140.0000003427076
 20
2262.537390970417
 30
0.0
  0
SPLINE
  5
46
330
1F
100
AcDbEntity
  8
Table_Miura_9590-71_2D
100
AcDbSpline
210
0.0
220
0.0
230
1.0
 70
    24
 71
     2
 72
     6
 73
     3
 74
     0
 42
0.0000000001
 43
0.0000000001
 40
0.0
 40
0.0
 40
0.0
 40
3.5
 40
3.5
 40
3.5
 10
140.0000003427076
 20
2262.537390970417
 30
0.0
 10
140.0000003467999
 20
2260.787390970417
 30
0.0
 10
140.0000003508922
 20
2259.037390970417
 30
0.0
  0
SPLINE
  5
47
330
1F
100
AcDbEntity
  8
Table_Miura_9590-71_2D
100
AcDbSpline
210
0.0
220
0.0
230
1.0
 70
    12
 71
     2
 72
     6
 73
     3
 74
     0
 42
0.0000000001
 43
0.0000000001
 40
0.0
 40
0.0
 40
0.0
 40
3.926978729214439
 40
3.926978729214439
 40
3.926978729214439
 10
140.0000003508922
 20
2259.037390970417
 30
0.0
 41
1.0
 10
139.9999997171599
 20
2256.537403406907
 30
0.0
 41
0.7071086263809615
 10
137.500006233292
 20
2256.537390970431
 30
0.0
 41
1.0
  0
SPLINE
  5
48
330
1F
100
AcDbEntity
  8
Table_Miura_9590-71_2D
100
AcDbSpline
210
0.0
220
0.0
230
1.0
 70
    24
 71
     3
 72
     9
 73
     5
 74
     0
 42
0.0000000001
 43
0.0000000001
 40
-275.000634640636
 40
-275.000634640636
 40
-275.000634640636
 40
-275.000634640636
 40
-0.0006371167132784
 40
0.0
 40
0.0
 40
0.0
 40
0.0
 10
137.500006233292
 20
2256.537390970431
 30
0.0
 10
45.83335465098753
 20
2256.537390970415
 30
0.0
 10
-45.83358505928572
 20
2256.537390970422
 30
0.0
 10
-137.5003990038122
 20
2256.537390970417
 30
0.0
 10
-137.4993600943062
 20
2256.537390970417
 30
0.0
  0
SPLINE
  5
49
330
1F
100
AcDbEntity
  8
Table_Miura_9590-71_2D
100
AcDbSpline
210
0.0
220
0.0
230
1.0
 70
    24
 71
     2
 72
     6
 73
     3
 74
     0
 42
0.0000000001
 43
0.0000000001
 40
0.0
 40
0.0
 40
0.0
 40
47.99851635084929
 40
47.99851635084929
 40
47.99851635084929
 10
91.56793484226
 20
2256.536649137888
 30
0.0
 10
70.78396758254121
 20
2244.537020054153
 30
0.0
 10
50.00000032282242
 20
2232.537390970417
 30
0.0
  0
SPLINE
  5
4A
330
1F
100
AcDbEntity
  8
Table_Miura_9590-71_2D
100
AcDbSpline
210
0.0
220
0.0
230
1.0
 70
    24
 71
     3
 72
    10
 73
     6
 74
     0
 42
0.0000000001
 43
0.0000000001
 40
-100.0009354610945
 40
-100.0009354610945
 40
-100.0009354610945
 40
-100.0009354610945
 40
-0.0009354610938317
 40
-0.0007038564751838
 40
0.0
 40
0.0
 40
0.0
 40
0.0
 10
50.00000032282242
 20
2232.537390970417
 30
0.0
 10
16.66669703103616
 20
2232.537390970415
 30
0.0
 10
-16.66680366354649
 20
2232.53739097042
 30
0.0
 10
-50.00035007035603
 20
2232.53739097042
 30
0.0
 10
-49.99868852134932
 20
2232.537390970417
 30
0.0
 10
-49.99953196872502
 20
2232.537390970417
 30
0.0
  0
SPLINE
  5
4B
330
1F
100
AcDbEntity
  8
Table_Miura_9590-71_2D
100
AcDbSpline
210
0.0
220
0.0
230
1.0
 70
    24
 71
     2
 72
     6
 73
     3
 74
     0
 42
0.0000000001
 43
0.0000000001
 40
0.0
 40
0.0
 40
0.0
 40
47.99848741513637
 40
47.99848741513637
 40
47.99848741513637
 10
-49.99953196872502
 20
2232.537390970417
 30
0.0
 10
-70.7837205641863
 20
2244.537012820224
 30
0.0
 10
-91.56790915964757
 20
2256.536634670032
 30
0.0
  0
SPLINE
  5
4C
330
1F
100
AcDbEntity
  8
Table_Miura_9590-71_2D
100
AcDbSpline
210
0.0
220
0.0
230
1.0
 70
    24
 71
     2
 72
     6
 73
     3
 74
     0
 42
0.0000000001
 43
0.0000000001
 40
-47.99848741513632
 40
-47.99848741513632
 40
-47.99848741513632
 40
0.0
 40
0.0
 40
0.0
 10
1119.243633898555
 20
2256.536634615533
 30
0.0
 10
1098.459445303094
 20
2244.537012765726
 30
0.0
 10
1077.675256707633
 20
2232.537390915918
 30
0.0
  0
SPLINE
  5
4D
330
1F
100
AcDbEntity
  8
Table_Miura_9590-71_2D
100
AcDbSpline
210
0.0
220
0.0
230
1.0
 70
    24
 71
     3
 72
    10
 73
     6
 74
     0
 42
0.0000000001
 43
0.0000000001
 40
0.0
 40
0.0
 40
0.0
 40
0.0
 40
0.0007038564752122
 40
0.0009354610935191
 40
50.0009354610936
 40
50.0009354610936
 40
50.0009354610936
 40
50.0009354610936
 10
1077.675256707633
 20
2232.537390915918
 30
0.0
 10
1077.674427954515
 20
2232.537390915921
 30
0.0
 10
1077.676061627937
 20
2232.537390915918
 30
0.0
 10
1061.009223340116
 20
2232.53739091592
 30
0.0
 10
1044.342340422676
 20
2232.537390915917
 30
0.0
 10
1027.675724427132
 20
2232.537390915918
 30
0.0
  0
SPLINE
  5
4E
330
1F
100
AcDbEntity
  8
Table_Miura_9590-71_2D
100
AcDbSpline
210
0.0
220
0.0
230
1.0
 70
    24
 71
     2
 72
     6
 73
     3
 74
     0
 42
0.0000000001
 43
0.0000000001
 40
0.0
 40
0.0
 40
0.0
 40
49.99906453890648
 40
49.99906453890648
 40
49.99906453890648
 10
1027.675724427132
 20
2232.537390915918
 30
0.0
 10
1002.675958286882
 20
2232.537390915918
 30
0.0
 10
977.6761921466314
 20
2232.537390915918
 30
0.0
  0
SPLINE
  5
4F
330
1F
100
AcDbEntity
  8
Table_Miura_9590-71_2D
100
AcDbSpline
210
0.0
220
0.0
230
1.0
 70
    24
 71
     2
 72
     6
 73
     3
 74
     0
 42
0.0000000001
 43
0.0000000001
 40
-47.9984874151363
 40
-47.9984874151363
 40
-47.9984874151363
 40
0.0
 40
0.0
 40
0.0
 10
977.6761921466314
 20
2232.537390915918
 30
0.0
 10
956.8920035511705
 20
2244.537012765726
 30
0.0
 10
936.1078149557097
 20
2256.536634615533
 30
0.0
  0
SPLINE
  5
50
330
1F
100
AcDbEntity
  8
Table_Miura_9590-71_2D
100
AcDbSpline
210
0.0
220
0.0
230
1.0
 70
    24
 71
     3
 72
     9
 73
     5
 74
     0
 42
0.0000000001
 43
0.0000000001
 40
0.0
 40
0.0
 40
0.0
 40
0.0
 40
0.0006373261368182
 40
137.5005588484815
 40
137.5005588484815
 40
137.5005588484815
 40
137.5005588484815
 10
1165.175083072847
 20
2256.537390915918
 30
0.0
 10
1165.176105498517
 20
2256.537390915917
 30
0.0
 10
1119.342704485603
 20
2256.537390915917
 30
0.0
 10
1073.509059845364
 20
2256.537390915918
 30
0.0
 10
1027.675761651869
 20
2256.537390915918
 30
0.0
  0
SPLINE
  5
51
330
1F
100
AcDbEntity
  8
Table_Miura_9590-71_2D
100
AcDbSpline
210
0.0
220
0.0
230
1.0
 70
    24
 71
     2
 72
     6
 73
     3
 74
     0
 42
0.0000000001
 43
0.0000000001
 40
0.0
 40
0.0
 40
0.0
 40
137.4994130277261
 40
137.4994130277261
 40
137.4994130277261
 10
1027.675761651869
 20
2256.537390915918
 30
0.0
 10
958.9260365256209
 20
2256.537390915918
 30
0.0
 10
890.1763113993729
 20
2256.537390915918
 30
0.0
  0
SPLINE
  5
52
330
1F
100
AcDbEntity
  8
Table_Miura_9590-71_2D
100
AcDbSpline
210
0.0
220
0.0
230
1.0
 70
    12
 71
     2
 72
     6
 73
     3
 74
     0
 42
0.0000000001
 43
0.0000000001
 40
-0.0017236465548061
 40
-0.0017236465548061
 40
-0.0017236465548061
 40
0.0
 40
0.0
 40
0.0
 10
1165.177584861991
 20
2256.537391611803
 30
0.0
 41
1.0
 10
1165.178446684757
 20
2256.537392551625
 30
0.0
 41
1.0
 10
1165.179308507521
 20
2256.537393491109
 30
0.0
 41
1.0
  0
SPLINE
  5
53
330
1F
100
AcDbEntity
  8
Table_Miura_9590-71_2D
100
AcDbSpline
210
0.0
220
0.0
230
1.0
 70
    12
 71
     2
 72
     6
 73
     3
 74
     0
 42
0.0000000001
 43
0.0000000001
 40
0.0
 40
0.0
 40
0.0
 40
3.923393678308207
 40
3.923393678308207
 40
3.923393678308207
 10
1165.179308507521
 20
2256.537393491109
 30
0.0
 41
1.0
 10
1167.675717574314
 20
2256.540979273845
 30
0.0
 41
0.7076128936508792
 10
1167.675715588983
 20
2259.037390915918
 30
0.0
 41
0.9999999999935767
  0
SPLINE
  5
54
330
1F
100
AcDbEntity
  8
Table_Miura_9590-71_2D
100
AcDbSpline
210
0.0
220
0.0
230
1.0
 70
    24
 71
     2
 72
     6
 73
     3
 74
     0
 42
0.0000000001
 43
0.0000000001
 40
0.0
 40
0.0
 40
0.0
 40
3.5
 40
3.5
 40
3.5
 10
1167.675715588984
 20
2259.037390915918
 30
0.0
 10
1167.675551506004
 20
2260.787390915918
 30
0.0
 10
1167.675387423023
 20
2262.537390915918
 30
0.0
  0
SPLINE
  5
55
330
1F
100
AcDbEntity
  8
Table_Miura_9590-71_2D
100
AcDbSpline
210
0.0
220
0.0
230
1.0
 70
    24
 71
     2
 72
     6
 73
     3
 74
     0
 42
0.0000000001
 43
0.0000000001
 40
-139.9993259299168
 40
-139.9993259299168
 40
-139.9993259299168
 40
0.0
 40
0.0
 40
0.0
 10
1167.675387423023
 20
2262.537390915918
 30
0.0
 10
1097.675555925078
 20
2262.537390915918
 30
0.0
 10
1027.675724427132
 20
2262.537390915918
 30
0.0
  0
SPLINE
  5
56
330
1F
100
AcDbEntity
  8
Table_Miura_9590-71_2D
100
AcDbSpline
210
0.0
220
0.0
230
1.0
 70
    24
 71
     3
 72
     9
 73
     5
 74
     0
 42
0.0000000001
 43
0.0000000001
 40
-140.0006740700831
 40
-140.0006740700831
 40
-140.0006740700831
 40
-140.0006740700831
 40
-0.000588034942917
 40
0.0
 40
0.0
 40
0.0
 40
0.0
 10
1027.675724427132
 20
2262.537390915918
 30
0.0
 10
981.0091450999798
 20
2262.537390915916
 30
0.0
 10
934.3420427285719
 20
2262.537390915919
 30
0.0
 10
887.6754217410016
 20
2262.53739091592
 30
0.0
 10
887.6760614312416
 20
2262.537390915918
 30
0.0
  0
SPLINE
  5
57
330
1F
100
AcDbEntity
  8
Table_Miura_9590-71_2D
100
AcDbSpline
210
0.0
220
0.0
230
1.0
 70
    24
 71
     2
 72
     6
 73
     3
 74
     0
 42
0.0000000001
 43
0.0000000001
 40
0.0
 40
0.0
 40
0.0
 40
3.5
 40
3.5
 40
3.5
 10
887.6760614312416
 20
2262.537390915918
 30
0.0
 10
887.6758779829761
 20
2260.787390915918
 30
0.0
 10
887.6756945347106
 20
2259.037390915918
 30
0.0
  0
SPLINE
  5
58
330
1F
100
AcDbEntity
  8
Table_Miura_9590-71_2D
100
AcDbSpline
210
0.0
220
0.0
230
1.0
 70
    12
 71
     2
 72
     6
 73
     3
 74
     0
 42
0.0000000001
 43
0.0000000001
 40
0.0
 40
0.0
 40
0.0
 40
3.923569074038741
 40
3.923569074038741
 40
3.923569074038741
 10
887.6756945347108
 20
2259.037390915919
 30
0.0
 41
0.9999999999897549
 10
887.6756698843208
 20
2256.540813265842
 30
0.0
 41
0.7075916723679009
 10
890.1722451918549
 20
2256.537393267355
 30
0.0
 41
1.0
  0
SPLINE
  5
59
330
1F
100
AcDbEntity
  8
Table_Miura_9590-71_2D
100
AcDbSpline
210
0.0
220
0.0
230
1.0
 70
    28
 71
     2
 72
     6
 73
     3
 74
     0
 42
0.0000000001
 43
0.0000000001
 40
0.0
 40
0.0
 40
0.0
 40
0.0017079348288815
 40
0.0017079348288815
 40
0.0017079348288815
 10
890.1722451918549
 20
2256.537393267355
 30
0.0
 41
1.0
 10
890.1730991588165
 20
2256.537392387938
 30
0.0
 41
1.0
 10
890.1739531257781
 20
2256.537391508413
 30
0.0
 41
1.0
  0
SPLINE
  5
5A
330
1F
100
AcDbEntity
  8
Table_Miura_9590-71_2D
100
AcDbSpline
210
0.0
220
0.0
230
1.0
 70
    12
 71
     2
 72
     6
 73
     3
 74
     0
 42
0.0000000001
 43
0.0000000001
 40
-0.0017236465548061
 40
-0.0017236465548061
 40
-0.0017236465548061
 40
0.0
 40
0.0
 40
0.0
 10
2244.817554003538
 20
2256.537391660154
 30
0.0
 41
1.0
 10
2244.818415826304
 20
2256.537392599976
 30
0.0
 41
1.0
 10
2244.819277649068
 20
2256.53739353946
 30
0.0
 41
1.0
  0
SPLINE
  5
5B
330
1F
100
AcDbEntity
  8
Table_Miura_9590-71_2D
100
AcDbSpline
210
0.0
220
0.0
230
1.0
 70
    12
 71
     2
 72
     6
 73
     3
 74
     0
 42
0.0000000001
 43
0.0000000001
 40
0.0
 40
0.0
 40
0.0
 40
3.923393678308207
 40
3.923393678308207
 40
3.923393678308207
 10
2244.819277649068
 20
2256.53739353946
 30
0.0
 41
1.0
 10
2247.31568671586
 20
2256.540979322196
 30
0.0
 41
0.7076128936508792
 10
2247.31568473053
 20
2259.037390964269
 30
0.0
 41
0.9999999999935767
  0
SPLINE
  5
5C
330
1F
100
AcDbEntity
  8
Table_Miura_9590-71_2D
100
AcDbSpline
210
0.0
220
0.0
230
1.0
 70
    24
 71
     2
 72
     6
 73
     3
 74
     0
 42
0.0000000001
 43
0.0000000001
 40
0.0
 40
0.0
 40
0.0
 40
3.5
 40
3.5
 40
3.5
 10
2247.315684730531
 20
2259.037390964269
 30
0.0
 10
2247.315520647551
 20
2260.787390964269
 30
0.0
 10
2247.315356564571
 20
2262.537390964269
 30
0.0
  0
SPLINE
  5
5D
330
1F
100
AcDbEntity
  8
Table_Miura_9590-71_2D
100
AcDbSpline
210
0.0
220
0.0
230
1.0
 70
    24
 71
     2
 72
     6
 73
     3
 74
     0
 42
0.0000000001
 43
0.0000000001
 40
-139.9993259299168
 40
-139.9993259299168
 40
-139.9993259299168
 40
0.0
 40
0.0
 40
0.0
 10
2247.315356564571
 20
2262.537390964269
 30
0.0
 10
2177.315525066625
 20
2262.537390964269
 30
0.0
 10
2107.315693568679
 20
2262.537390964269
 30
0.0
  0
SPLINE
  5
5E
330
1F
100
AcDbEntity
  8
Table_Miura_9590-71_2D
100
AcDbSpline
210
0.0
220
0.0
230
1.0
 70
    24
 71
     3
 72
     9
 73
     5
 74
     0
 42
0.0000000001
 43
0.0000000001
 40
-140.0006740700831
 40
-140.0006740700831
 40
-140.0006740700831
 40
-140.0006740700831
 40
-0.000588034942917
 40
0.0
 40
0.0
 40
0.0
 40
0.0
 10
2107.315693568679
 20
2262.537390964269
 30
0.0
 10
2060.649114241527
 20
2262.537390964267
 30
0.0
 10
2013.982011870119
 20
2262.53739096427
 30
0.0
 10
1967.315390882549
 20
2262.537390964271
 30
0.0
 10
1967.316030572789
 20
2262.537390964269
 30
0.0
  0
SPLINE
  5
5F
330
1F
100
AcDbEntity
  8
Table_Miura_9590-71_2D
100
AcDbSpline
210
0.0
220
0.0
230
1.0
 70
    24
 71
     2
 72
     6
 73
     3
 74
     0
 42
0.0000000001
 43
0.0000000001
 40
0.0
 40
0.0
 40
0.0
 40
3.5
 40
3.5
 40
3.5
 10
1967.316030572789
 20
2262.537390964269
 30
0.0
 10
1967.315847124523
 20
2260.787390964269
 30
0.0
 10
1967.315663676258
 20
2259.037390964269
 30
0.0
  0
SPLINE
  5
60
330
1F
100
AcDbEntity
  8
Table_Miura_9590-71_2D
100
AcDbSpline
210
0.0
220
0.0
230
1.0
 70
    12
 71
     2
 72
     6
 73
     3
 74
     0
 42
0.0000000001
 43
0.0000000001
 40
0.0
 40
0.0
 40
0.0
 40
3.923569074038741
 40
3.923569074038741
 40
3.923569074038741
 10
1967.315663676258
 20
2259.03739096427
 30
0.0
 41
0.9999999999897549
 10
1967.315639025868
 20
2256.540813314193
 30
0.0
 41
0.7075916723679009
 10
1969.812214333402
 20
2256.537393315706
 30
0.0
 41
1.0
  0
SPLINE
  5
61
330
1F
100
AcDbEntity
  8
Table_Miura_9590-71_2D
100
AcDbSpline
210
0.0
220
0.0
230
1.0
 70
    28
 71
     2
 72
     6
 73
     3
 74
     0
 42
0.0000000001
 43
0.0000000001
 40
0.0
 40
0.0
 40
0.0
 40
0.0017079348288815
 40
0.0017079348288815
 40
0.0017079348288815
 10
1969.812214333402
 20
2256.537393315706
 30
0.0
 41
1.0
 10
1969.813068300364
 20
2256.537392436289
 30
0.0
 41
1.0
 10
1969.813922267325
 20
2256.537391556764
 30
0.0
 41
1.0
  0
SPLINE
  5
62
330
1F
100
AcDbEntity
  8
Table_Miura_9590-71_2D
100
AcDbSpline
210
0.0
220
0.0
230
1.0
 70
    24
 71
     3
 72
     9
 73
     5
 74
     0
 42
0.0000000001
 43
0.0000000001
 40
0.0
 40
0.0
 40
0.0
 40
0.0
 40
0.0006373261368182
 40
137.5005588484815
 40
137.5005588484815
 40
137.5005588484815
 40
137.5005588484815
 10
2244.815052214394
 20
2256.537390964269
 30
0.0
 10
2244.816074640064
 20
2256.537390964268
 30
0.0
 10
2198.98267362715
 20
2256.537390964268
 30
0.0
 10
2153.149028986912
 20
2256.537390964269
 30
0.0
 10
2107.315730793416
 20
2256.537390964269
 30
0.0
  0
SPLINE
  5
63
330
1F
100
AcDbEntity
  8
Table_Miura_9590-71_2D
100
AcDbSpline
210
0.0
220
0.0
230
1.0
 70
    24
 71
     2
 72
     6
 73
     3
 74
     0
 42
0.0000000001
 43
0.0000000001
 40
0.0
 40
0.0
 40
0.0
 40
137.4994130277261
 40
137.4994130277261
 40
137.4994130277261
 10
2107.315730793416
 20
2256.537390964269
 30
0.0
 10
2038.566005667168
 20
2256.537390964269
 30
0.0
 10
1969.81628054092
 20
2256.537390964269
 30
0.0
  0
SPLINE
  5
64
330
1F
100
AcDbEntity
  8
Table_Miura_9590-71_2D
100
AcDbSpline
210
0.0
220
0.0
230
1.0
 70
    24
 71
     2
 72
     6
 73
     3
 74
     0
 42
0.0000000001
 43
0.0000000001
 40
-47.99848741513632
 40
-47.99848741513632
 40
-47.99848741513632
 40
0.0
 40
0.0
 40
0.0
 10
2198.883603040103
 20
2256.536634663884
 30
0.0
 10
2178.099414444641
 20
2244.537012814077
 30
0.0
 10
2157.31522584918
 20
2232.537390964269
 30
0.0
  0
SPLINE
  5
65
330
1F
100
AcDbEntity
  8
Table_Miura_9590-71_2D
100
AcDbSpline
210
0.0
220
0.0
230
1.0
 70
    24
 71
     3
 72
    10
 73
     6
 74
     0
 42
0.0000000001
 43
0.0000000001
 40
0.0
 40
0.0
 40
0.0
 40
0.0
 40
0.0007038564752122
 40
0.0009354610935191
 40
50.0009354610936
 40
50.0009354610936
 40
50.0009354610936
 40
50.0009354610936
 10
2157.31522584918
 20
2232.537390964269
 30
0.0
 10
2157.314397096062
 20
2232.537390964272
 30
0.0
 10
2157.316030769484
 20
2232.537390964269
 30
0.0
 10
2140.649192481663
 20
2232.537390964271
 30
0.0
 10
2123.982309564223
 20
2232.537390964268
 30
0.0
 10
2107.315693568679
 20
2232.537390964269
 30
0.0
  0
SPLINE
  5
66
330
1F
100
AcDbEntity
  8
Table_Miura_9590-71_2D
100
AcDbSpline
210
0.0
220
0.0
230
1.0
 70
    24
 71
     2
 72
     6
 73
     3
 74
     0
 42
0.0000000001
 43
0.0000000001
 40
0.0
 40
0.0
 40
0.0
 40
49.99906453890648
 40
49.99906453890648
 40
49.99906453890648
 10
2107.315693568679
 20
2232.537390964269
 30
0.0
 10
2082.315927428429
 20
2232.537390964269
 30
0.0
 10
2057.316161288179
 20
2232.537390964269
 30
0.0
  0
SPLINE
  5
67
330
1F
100
AcDbEntity
  8
Table_Miura_9590-71_2D
100
AcDbSpline
210
0.0
220
0.0
230
1.0
 70
    24
 71
     2
 72
     6
 73
     3
 74
     0
 42
0.0000000001
 43
0.0000000001
 40
-47.9984874151363
 40
-47.9984874151363
 40
-47.9984874151363
 40
0.0
 40
0.0
 40
0.0
 10
2057.316161288179
 20
2232.537390964269
 30
0.0
 10
2036.531972692718
 20
2244.537012814077
 30
0.0
 10
2015.747784097257
 20
2256.536634663884
 30
0.0
  0
POLYLINE
  5
68
330
1F
100
AcDbEntity
  8
Table_Miura_9590-71_2D
100
AcDb2dPolyline
 66
     1
 10
0.0
 20
0.0
 30
0.0
  0
VERTEX
  5
69
330
68
100
AcDbEntity
  8
Table_Miura_9590-71_2D
100
AcDbVertex
100
AcDb2dVertex
 10
1757.315693568679
 20
2262.537390964269
 30
0.0
  0
VERTEX
  5
6A
330
68
100
AcDbEntity
  8
Table_Miura_9590-71_2D
100
AcDbVertex
100
AcDb2dVertex
 10
2457.315693568679
 20
2262.537390964269
 30
0.0
  0
VERTEX
  5
6B
330
68
100
AcDbEntity
  8
Table_Miura_9590-71_2D
100
AcDbVertex
100
AcDb2dVertex
 10
2457.315693568679
 20
2272.537390964269
 30
0.0
  0
VERTEX
  5
6C
330
68
100
AcDbEntity
  8
Table_Miura_9590-71_2D
100
AcDbVertex
100
AcDb2dVertex
 10
1757.315693568679
 20
2272.537390964269
 30
0.0
  0
VERTEX
  5
6D
330
68
100
AcDbEntity
  8
Table_Miura_9590-71_2D
100
AcDbVertex
100
AcDb2dVertex
 10
1757.315693568679
 20
2262.537390964269
 30
0.0
  0
SEQEND
  5
6E
330
68
100
AcDbEntity
  8
Table_Miura_9590-71_2D
  0
POLYLINE
  5
6F
330
1F
100
AcDbEntity
  8
Table_Miura_9590-71_2D
100
AcDb2dPolyline
 66
     1
 10
0.0
 20
0.0
 30
0.0
  0
VERTEX
  5
70
330
6F
100
AcDbEntity
  8
Table_Miura_9590-71_2D
100
AcDbVertex
100
AcDb2dVertex
 10
677.675724427132
 20
2262.537390964269
 30
0.0
  0
VERTEX
  5
71
330
6F
100
AcDbEntity
  8
Table_Miura_9590-71_2D
100
AcDbVertex
100
AcDb2dVertex
 10
1377.675724427132
 20
2262.537390964269
 30
0.0
  0
VERTEX
  5
72
330
6F
100
AcDbEntity
  8
Table_Miura_9590-71_2D
100
AcDbVertex
100
AcDb2dVertex
 10
1377.675724427132
 20
2272.537390964269
 30
0.0
  0
VERTEX
  5
73
330
6F
100
AcDbEntity
  8
Table_Miura_9590-71_2D
100
AcDbVertex
100
AcDb2dVertex
 10
677.675724427132
 20
2272.537390964269
 30
0.0
  0
VERTEX
  5
74
330
6F
100
AcDbEntity
  8
Table_Miura_9590-71_2D
100
AcDbVertex
100
AcDb2dVertex
 10
677.675724427132
 20
2262.537390964269
 30
0.0
  0
SEQEND
  5
75
330
6F
100
AcDbEntity
  8
Table_Miura_9590-71_2D
  0
POLYLINE
  5
76
330
1F
100
AcDbEntity
  8
Table_Miura_9590-71_2D
100
AcDb2dPolyline
 66
     1
 10
0.0
 20
0.0
 30
0.0
  0
VERTEX
  5
77
330
76
100
AcDbEntity
  8
Table_Miura_9590-71_2D
100
AcDbVertex
100
AcDb2dVertex
 10
-349.9364479558823
 20
2262.537390964269
 30
0.0
  0
VERTEX
  5
78
330
76
100
AcDbEntity
  8
Table_Miura_9590-71_2D
100
AcDbVertex
100
AcDb2dVertex
 10
350.0635520441177
 20
2262.537390964269
 30
0.0
  0
VERTEX
  5
79
330
76
100
AcDbEntity
  8
Table_Miura_9590-71_2D
100
AcDbVertex
100
AcDb2dVertex
 10
350.0635520441177
 20
2272.537390964269
 30
0.0
  0
VERTEX
  5
7A
330
76
100
AcDbEntity
  8
Table_Miura_9590-71_2D
100
AcDbVertex
100
AcDb2dVertex
 10
-349.9364479558823
 20
2272.537390964269
 30
0.0
  0
VERTEX
  5
7B
330
76
100
AcDbEntity
  8
Table_Miura_9590-71_2D
100
AcDbVertex
100
AcDb2dVertex
 10
-349.9364479558823
 20
2262.537390964269
 30
0.0
  0
SEQEND
  5
7C
330
76
100
AcDbEntity
  8
Table_Miura_9590-71_2D
  0
CIRCLE
  5
7D
330
1F
100
AcDbEntity
  8
Table_Miura_9590-71_2D
100
AcDbCircle
 10
0.0
 20
0.0
 30
0.0
 40
350.0
  0
SPLINE
  5
7E
330
1F
100
AcDbEntity
  8
Table_Miura_9590-71_2D
 62
     9
100
AcDbSpline
210
0.0
220
0.0
230
1.0
 70
    11
 71
     3
 72
    39
 73
    35
 74
     0
 42
0.0000000001
 43
0.0000000001
 40
0.0
 40
0.0
 40
0.0
 40
0.0
 40
27.49163491281067
 40
54.98554466015823
 40
82.47417243782984
 40
109.9550851858812
 40
137.4405102302657
 40
164.9353017108435
 40
192.4180551861614
 40
219.9101446616718
 40
247.4017795744827
 40
274.8956893218303
 40
302.3843170995021
 40
329.8652298475533
 40
357.3506548919382
 40
384.8454463725156
 40
412.3281998478335
 40
439.8202893233441
 40
467.311924236154
 40
494.8058339835015
 40
522.2944617611732
 40
549.7753745092244
 40
577.2607995536106
 40
604.755591034188
 40
632.2383445095059
 40
659.7304339850166
 40
687.222068897827
 40
714.7159786451745
 40
742.2046064228463
 40
769.6855191708972
 40
797.1709442152832
 40
824.6657356958605
 40
852.1484891711783
 40
879.6405786466887
 40
879.6405786466887
 40
879.6405786466887
 40
879.6405786466887
 10
140.0000000000009
 20
0.0000000000005116
 30
0.0
 10
140.0004090247703
 20
-9.163905643350944
 30
0.0
 10
138.1944212161625
 20
-27.49226151472897
 30
0.0
 10
130.1746570607302
 20
-53.92691684113075
 30
0.0
 10
117.1529651417422
 20
-78.28553407702432
 30
0.0
 10
99.63172728010431
 20
-99.63384262040996
 30
0.0
 10
78.28162397614233
 20
-117.156235995207
 30
0.0
 10
53.92195901493142
 20
-130.1759647592557
 30
0.0
 10
27.4892560780745
 20
-138.1956047753177
 30
0.0
 10
-0.0000802954209576
 20
-140.9019314174167
 30
0.0
 10
-27.49217534757645
 20
-138.1952675994851
 30
0.0
 10
-53.92697059658713
 20
-130.1741390086331
 30
0.0
 10
-78.2855009168843
 20
-117.1532839944569
 30
0.0
 10
-99.63386305126551
 20
-99.6315308786685
 30
0.0
 10
-117.156223404816
 20
-78.28174500353096
 30
0.0
 10
-130.1759725149677
 20
-53.9218844620375
 30
0.0
 10
-138.1955999973516
 20
-27.48930200693806
 30
0.0
 10
-140.9019343612681
 20
0.0001085936183927
 30
0.0
 10
-138.1952657857837
 20
27.49215791311335
 30
0.0
 10
-130.1741401260178
 20
53.9269813375987
 30
0.0
 10
-117.153283306192
 20
78.28549430083945
 30
0.0
 10
-99.63153130265346
 20
99.63386712688043
 30
0.0
 10
-78.28174474225762
 20
117.1562208932944
 30
0.0
 10
-53.92188462298327
 20
130.1759740620686
 30
0.0
 10
-27.48930190778628
 20
138.1955990442501
 30
0.0
 10
0.0001085325284294
 20
140.9019349485069
 30
0.0
 10
27.4921579507527
 20
138.1952654239892
 30
0.0
 10
53.92698131441102
 20
130.174140348913
 30
0.0
 10
78.2854943151242
 20
117.1532831688992
 30
0.0
 10
99.6339475237919
 20
99.63160615754401
 30
0.0
 10
117.1558984336098
 20
78.28154887639255
 30
0.0
 10
130.1764166945277
 20
53.92214983624064
 30
0.0
 10
138.1952207402082
 20
27.4890020842378
 30
0.0
 10
139.9993145385724
 20
9.163944759148961
 30
0.0
 10
140.0000000000009
 20
0.0000000000005116
 30
0.0
  0
SPLINE
  5
7F
330
1F
100
AcDbEntity
  8
Table_Miura_9590-71_2D
 62
     9
100
AcDbSpline
210
0.0
220
0.0
230
1.0
 70
    11
 71
     3
 72
    39
 73
    35
 74
     0
 42
0.0000000001
 43
0.0000000001
 40
0.0
 40
0.0
 40
0.0
 40
0.0
 40
17.98133963208149
 40
35.96416715575479
 40
53.94353992342776
 40
71.91786655367305
 40
89.89514452286816
 40
107.8785487581381
 40
125.8540793452332
 40
143.8357162912548
 40
161.8170559233368
 40
179.79988344701
 40
197.7792562146827
 40
215.7535828449282
 40
233.7308608141233
 40
251.7142650493934
 40
269.689795636488
 40
287.6714325825098
 40
305.6527722145915
 40
323.6355997382645
 40
341.6149725059374
 40
359.5892991361829
 40
377.566577105378
 40
395.549981340648
 40
413.5255119277427
 40
431.5071488737649
 40
449.4884885058464
 40
467.4713160295196
 40
485.4506887971928
 40
503.4250154274384
 40
521.4022933966334
 40
539.3856976319033
 40
557.3612282189979
 40
575.3428651650199
 40
575.3428651650199
 40
575.3428651650199
 40
575.3428651650199
 10
91.56921938165397
 20
0.00000000000054
 30
0.0
 10
91.56948691078924
 20
-5.993797758919328
 30
0.0
 10
90.38825195473783
 20
-17.98174947099955
 30
0.0
 10
85.1427980737526
 20
-35.2717548485829
 30
0.0
 10
76.62575404482413
 20
-51.20389460220588
 30
0.0
 10
65.16571066203505
 20
-65.16709423389571
 30
0.0
 10
51.20133713873838
 20
-76.62789339838412
 30
0.0
 10
35.26851210376299
 20
-85.14365339470413
 30
0.0
 10
17.97978371751196
 20
-90.38902608036612
 30
0.0
 10
-0.000052518492339
 20
-92.15914192328603
 30
0.0
 10
-17.98169311200763
 20
-90.3888055451678
 30
0.0
 10
-35.27179000819069
 20
-85.1424592335664
 30
0.0
 10
-51.20387291329189
 20
-76.62596259549684
 30
0.0
 10
-65.16710759702255
 20
-65.16558220256277
 30
0.0
 10
-76.62788516343699
 20
-51.2014162986209
 30
0.0
 10
-85.14365846745113
 20
-35.26846334126054
 30
0.0
 10
-90.38902295525986
 20
-17.97981375801263
 30
0.0
 10
-92.15914384876123
 20
0.0000710273775724
 30
0.0
 10
-90.38880435888586
 20
17.98168170872125
 30
0.0
 10
-85.14245996441059
 20
35.27179703352107
 30
0.0
 10
-76.6259621453255
 20
51.2038685859626
 30
0.0
 10
-65.16558247987814
 20
65.16711026274152
 30
0.0
 10
-51.20141612773023
 20
76.62788352073915
 30
0.0
 10
-35.26846344652859
 20
85.14365947935698
 30
0.0
 10
-17.97981369316039
 20
90.3890223318707
 30
0.0
 10
0.000070987419349
 20
92.1591442328517
 30
0.0
 10
17.98168173334034
 20
90.38880412225063
 30
0.0
 10
35.27179701835394
 20
85.14246011019793
 30
0.0
 10
51.2038685953039
 20
76.62596205552757
 30
0.0
 10
65.16716284761696
 20
65.1656314399051
 30
0.0
 10
76.62767261086992
 20
51.20128801855694
 30
0.0
 10
85.14394899013405
 20
35.26863691346529
 30
0.0
 10
90.38877489611423
 20
17.97961758881644
 30
0.0
 10
91.56877104474006
 20
5.993823343227575
 30
0.0
 10
91.56921938165397
 20
0.0000000000004832
 30
0.0
  0
SPLINE
  5
80
330
1F
100
AcDbEntity
  8
Table_Miura_9590-71_2D
 62
     9
100
AcDbSpline
210
0.0
220
0.0
230
1.0
 70
    15
 71
     2
 72
    12
 73
     9
 74
     0
 42
0.0000000001
 43
0.0000000001
 40
0.0
 40
0.0
 40
0.0
 40
78.53981633974519
 40
78.53981633974519
 40
157.0796326794904
 40
157.0796326794904
 40
235.6194490192356
 40
235.6194490192356
 40
314.1592653589807
 40
314.1592653589807
 40
314.1592653589807
 10
50.00000000000091
 20
0.00000000000054
 30
0.0
 41
1.0
 10
50.00000000000028
 20
50.0000000000008
 30
0.0
 41
0.7071067811865476
 10
0.0
 20
50.00000000000063
 30
0.0
 41
1.0
 10
-49.99999999999988
 20
50.00000000000048
 30
0.0
 41
0.7071067811865476
 10
-50.0
 20
0.0000000000002558
 30
0.0
 41
1.0
 10
-49.99999999999988
 20
-50.0
 30
0.0
 41
0.7071067811865476
 10
0.0000000000009095
 20
-49.99999999999983
 30
0.0
 41
1.0
 10
50.00000000000028
 20
-49.99999999999967
 30
0.0
 41
0.7071067811865476
 10
50.00000000000091
 20
0.00000000000054
 30
0.0
 41
1.0
  0
SPLINE
  5
81
330
1F
100
AcDbEntity
  8
Table_Miura_9590-71_2D
100
AcDbSpline
210
0.0
220
0.0
230
1.0
 70
     8
 71
     3
 72
    12
 73
     8
 74
     0
 42
0.0000000001
 43
0.0000000001
 40
0.0
 40
0.0
 40
0.0
 40
0.0
 40
0.0890023797843848
 40
0.1797960093845599
 40
0.411193526615116
 40
0.6556287843923315
 40
0.8529811660911646
 40
0.8529811660911646
 40
0.8529811660911646
 40
0.8529811660911646
 10
-318.0662017726172
 20
1201.268816075069
 30
0.0
 10
-318.0468898106265
 20
1201.291543879414
 30
0.0
 10
-318.006096133774
 20
1201.335671940688
 30
0.0
 10
-317.8974194918601
 20
1201.419924455881
 30
0.0
 10
-317.7308983113044
 20
1201.510181639302
 30
0.0
 10
-317.5213916629509
 20
1201.591981849361
 30
0.0
 10
-317.3758726790202
 20
1201.61983070326
 30
0.0
 10
-317.3099827956266
 20
1201.621614527706
 30
0.0
  0
SPLINE
  5
82
330
1F
100
AcDbEntity
  8
Table_Miura_9590-71_2D
100
AcDbSpline
210
0.0
220
0.0
230
1.0
 70
    24
 71
     2
 72
     6
 73
     3
 74
     0
 42
0.0000000001
 43
0.0000000001
 40
0.0
 40
0.0
 40
0.0
 40
0.5244495011189884
 40
0.5244495011189884
 40
0.5244495011189884
 10
-318.4097146785844
 20
1200.872160037524
 30
0.0
 10
-318.2379582256008
 20
1201.070488056297
 30
0.0
 10
-318.0662017726172
 20
1201.268816075069
 30
0.0
  0
SPLINE
  5
83
330
1F
100
AcDbEntity
  8
Table_Miura_9590-71_2D
100
AcDbSpline
210
0.0
220
0.0
230
1.0
 70
     8
 71
     3
 72
    16
 73
    12
 74
     0
 42
0.0000000001
 43
0.0000000001
 40
0.0
 40
0.0
 40
0.0
 40
0.0
 40
0.1450445684408275
 40
0.2674563255525638
 40
0.5165020686838145
 40
0.7647651081847263
 40
0.9971024939488223
 40
1.19489142016583
 40
1.37708050099132
 40
1.556352254818322
 40
1.789706299665248
 40
1.789706299665248
 40
1.789706299665248
 40
1.789706299665248
 10
-318.0488297832881
 20
1199.372161396496
 30
0.0
 10
-318.088275091126
 20
1199.400303036044
 30
0.0
 10
-318.1604196263797
 20
1199.452762008239
 30
0.0
 10
-318.291020899539
 20
1199.565209077959
 30
0.0
 10
-318.429410859103
 20
1199.719562408021
 30
0.0
 10
-318.5592710913088
 20
1199.926322462848
 30
0.0
 10
-318.6414105353469
 20
1200.138370844208
 30
0.0
 10
-318.6683951449186
 20
1200.342455652098
 30
0.0
 10
-318.639026343918
 20
1200.528776172834
 30
0.0
 10
-318.5504991371681
 20
1200.708324441656
 30
0.0
 10
-318.4607475344083
 20
1200.813446764142
 30
0.0
 10
-318.4097146785844
 20
1200.872160037524
 30
0.0
  0
SPLINE
  5
84
330
1F
100
AcDbEntity
  8
Table_Miura_9590-71_2D
100
AcDbSpline
210
0.0
220
0.0
230
1.0
 70
     8
 71
     3
 72
    12
 73
     8
 74
     0
 42
0.0000000001
 43
0.0000000001
 40
0.0
 40
0.0
 40
0.0
 40
0.0
 40
2.765242495116512
 40
5.467131183712467
 40
11.12386283924205
 40
16.6939552205985
 40
22.3034199774177
 40
22.3034199774177
 40
22.3034199774177
 40
22.3034199774177
 10
-297.1833222478117
 20
1192.536629079247
 30
0.0
 10
-298.1050340361453
 20
1192.545418726791
 30
0.0
 10
-299.9266177761201
 20
1192.633228224431
 30
0.0
 10
-303.6090376534275
 20
1193.088719587405
 30
0.0
 10
-308.134566443181
 20
1194.188007288329
 30
0.0
 10
-313.3338687963796
 20
1196.343811063434
 30
0.0
 10
-316.5282660913326
 20
1198.283888480967
 30
0.0
 10
-318.0488297832881
 20
1199.372161396496
 30
0.0
  0
SPLINE
  5
85
330
1F
100
AcDbEntity
  8
Table_Miura_9590-71_2D
100
AcDbSpline
210
0.0
220
0.0
230
1.0
 70
     8
 71
     5
 72
    12
 73
     6
 74
     0
 42
0.0000000001
 43
0.0000000001
 40
-1.0
 40
-1.0
 40
-1.0
 40
-1.0
 40
-1.0
 40
-1.0
 40
0.0
 40
0.0
 40
0.0
 40
0.0
 40
0.0
 40
0.0
 10
-296.8386689540012
 20
1192.534973636693
 30
0.0
 10
-296.9076004076314
 20
1192.53497975432
 30
0.0
 10
-296.9765318465597
 20
1192.535151526209
 30
0.0
 10
-297.0454640249427
 20
1192.535480470739
 30
0.0
 10
-297.1143939279928
 20
1192.535971763539
 30
0.0
 10
-297.1833222478117
 20
1192.536629079247
 30
0.0
  0
SPLINE
  5
86
330
1F
100
AcDbEntity
  8
Table_Miura_9590-71_2D
100
AcDbSpline
210
0.0
220
0.0
230
1.0
 70
     8
 71
     3
 72
    11
 73
     7
 74
     0
 42
0.0000000001
 43
0.0000000001
 40
0.0
 40
0.0
 40
0.0
 40
0.0
 40
2.849025153143939
 40
5.681848556468799
 40
11.31563454753918
 40
22.64754464670963
 40
22.64754464670963
 40
22.64754464670963
 40
22.64754464670963
 10
-275.6288964529413
 20
1199.372083313127
 30
0.0
 10
-276.4012246918655
 20
1198.819176284669
 30
0.0
 10
-277.9838446818148
 20
1197.775865137158
 30
0.0
 10
-281.2855726812477
 20
1195.947010719669
 30
0.0
 10
-287.4072142377499
 20
1193.427887192025
 30
0.0
 10
-293.0612131077069
 20
1192.534638389614
 30
0.0
 10
-296.8386689540012
 20
1192.534973636693
 30
0.0
  0
SPLINE
  5
87
330
1F
100
AcDbEntity
  8
Table_Miura_9590-71_2D
100
AcDbSpline
210
0.0
220
0.0
230
1.0
 70
     8
 71
     3
 72
    12
 73
     8
 74
     0
 42
0.0000000001
 43
0.0000000001
 40
0.0
 40
0.0
 40
0.0
 40
0.0
 40
0.215147148445352
 40
0.4344126759933203
 40
1.014845999299492
 40
1.738325432821743
 40
2.240259627195612
 40
2.240259627195612
 40
2.240259627195612
 40
2.240259627195612
 10
-273.9688750898604
 20
1200.871967290103
 30
0.0
 10
-274.0159259474485
 20
1200.817405821932
 30
0.0
 10
-274.1117427912186
 20
1200.708777017913
 30
0.0
 10
-274.3480748802249
 20
1200.466617743287
 30
0.0
 10
-274.7200804379763
 20
1200.120867520172
 30
0.0
 10
-275.1738820248092
 20
1199.72536224326
 30
0.0
 10
-275.4920940063394
 20
1199.468960717218
 30
0.0
 10
-275.6288964529413
 20
1199.372083313127
 30
0.0
  0
SPLINE
  5
88
330
1F
100
AcDbEntity
  8
Table_Miura_9590-71_2D
100
AcDbSpline
210
0.0
220
0.0
230
1.0
 70
    24
 71
     2
 72
     6
 73
     3
 74
     0
 42
0.0000000001
 43
0.0000000001
 40
0.0
 40
0.0
 40
0.0
 40
0.5244136134753632
 40
0.5244136134753632
 40
0.5244136134753632
 10
-273.6253322211778
 20
1201.268656237806
 30
0.0
 10
-273.7971036555191
 20
1201.070311763955
 30
0.0
 10
-273.9688750898604
 20
1200.871967290103
 30
0.0
  0
SPLINE
  5
89
330
1F
100
AcDbEntity
  8
Table_Miura_9590-71_2D
100
AcDbSpline
210
0.0
220
0.0
230
1.0
 70
     8
 71
     3
 72
    13
 73
     9
 74
     0
 42
0.0000000001
 43
0.0000000001
 40
0.0
 40
0.0
 40
0.0
 40
0.0
 40
0.0842084935809858
 40
0.1523207872208179
 40
0.275918593398183
 40
0.3976132335562294
 40
0.4611173083935368
 40
0.5436834943217632
 40
0.5436834943217632
 40
0.5436834943217632
 40
0.5436834943217632
 10
-273.7942544875414
 20
1201.622128625202
 30
0.0
 10
-273.7662831383977
 20
1201.622096725138
 30
0.0
 10
-273.715119712424
 20
1201.618766000868
 30
0.0
 10
-273.6264887451425
 20
1201.593590957146
 30
0.0
 10
-273.5444355285881
 20
1201.518016454505
 30
0.0
 10
-273.5364938464672
 20
1201.408046201368
 30
0.0
 10
-273.5759292986259
 20
1201.326903973957
 30
0.0
 10
-273.6070800395864
 20
1201.289292830159
 30
0.0
 10
-273.6253322211778
 20
1201.268656237806
 30
0.0
  0
SPLINE
  5
8A
330
1F
100
AcDbEntity
  8
Table_Miura_9590-71_2D
100
AcDbSpline
210
0.0
220
0.0
230
1.0
 70
    12
 71
     2
 72
     6
 73
     3
 74
     0
 42
0.0000000001
 43
0.0000000001
 40
0.0
 40
0.0
 40
0.0
 40
11.69797561871451
 40
11.69797561871451
 40
11.69797561871451
 10
-11.69797530693995
 20
1569.327142266288
 30
0.0
 41
1.0
 10
-5.849093833787265
 20
1569.32714223328
 30
0.0
 41
1.0
 10
-0.0002123606354871
 20
1569.327142260182
 30
0.0
 41
1.0
  0
SPLINE
  5
8B
330
1F
100
AcDbEntity
  8
Table_Miura_9590-71_2D
100
AcDbSpline
210
0.0
220
0.0
230
1.0
 70
    12
 71
     3
 72
    10
 73
     6
 74
     0
 42
0.0000000001
 43
0.0000000001
 40
-1.411401651021521
 40
-1.411401651021521
 40
-1.411401651021521
 40
-1.411401651021521
 40
-0.7080503722075561
 40
-0.7080503722075561
 40
-0.0049548029583888
 40
-0.0049548029583888
 40
-0.0049548029583888
 40
-0.0049548029583888
 10
-12.56074352844553
 20
1570.163251999589
 30
0.0
 41
1.0
 10
-12.52714964274855
 20
1569.929390261619
 30
0.0
 41
1.0
 10
-12.42319759158636
 20
1569.717405644999
 30
0.0
 41
1.0
 10
-12.10781020657396
 20
1569.410860356172
 30
0.0
 41
1.0
 10
-11.90740831737639
 20
1569.327136898298
 30
0.0
 41
1.0
 10
-11.69797530693995
 20
1569.327142266288
 30
0.0
 41
1.0
  0
SPLINE
  5
8C
330
1F
100
AcDbEntity
  8
Table_Miura_9590-71_2D
100
AcDbSpline
210
0.0
220
0.0
230
1.0
 70
     8
 71
     3
 72
    18
 73
    14
 74
     0
 42
0.0000000001
 43
0.0000000001
 40
-11.35744832993483
 40
-11.35744832993483
 40
-11.35744832993483
 40
-11.35744832993483
 40
-7.387935346890758
 40
-6.716881895257425
 40
-6.413782533532999
 40
-6.129926738348679
 40
-5.827549416049516
 40
-5.506991273313297
 40
-4.870777299577194
 40
-3.713958932632885
 40
-2.530514856758515
 40
-1.285072805565842
 40
0.0
 40
0.0
 40
0.0
 40
0.0
 10
-21.65120270755415
 20
1574.327142360398
 30
0.0
 10
-20.32802257090225
 20
1574.32703136876
 30
0.0
 10
-18.78119149766644
 20
1574.327336384791
 30
0.0
 10
-17.13327648800441
 20
1574.326987918517
 30
0.0
 10
-16.71398513425447
 20
1574.327557372198
 30
0.0
 10
-16.41738650133266
 20
1574.327890308279
 30
0.0
 10
-16.1162175253794
 20
1574.296757427151
 30
0.0
 10
-15.70452936415222
 20
1574.213265243524
 30
0.0
 10
-15.03817042510036
 20
1573.974417442161
 30
0.0
 10
-14.20254755704173
 20
1573.420943548912
 30
0.0
 10
-13.4090826156571
 20
1572.514622332226
 30
0.0
 10
-12.83340723724268
 20
1571.409292837478
 30
0.0
 10
-12.62152456793046
 20
1570.587228818062
 30
0.0
 10
-12.56074352844553
 20
1570.163251999589
 30
0.0
  0
LINE
  5
8D
330
1F
100
AcDbEntity
  8
Table_Miura_9590-71_2D
100
AcDbLine
 10
-23.85294376439197
 20
1574.327234704392
 30
0.0
 11
-21.65120270755415
 21
1574.327142360398
 31
0.0
  0
SPLINE
  5
8E
330
1F
100
AcDbEntity
  8
Table_Miura_9590-71_2D
100
AcDbSpline
210
0.0
220
0.0
230
1.0
 70
     8
 71
     3
 72
    15
 73
    11
 74
     0
 42
0.0000000001
 43
0.0000000001
 40
0.0
 40
0.0
 40
0.0
 40
0.0
 40
0.9361505302432512
 40
1.592389293923229
 40
2.107271700881924
 40
2.520270126564129
 40
2.899529664530077
 40
3.247808135525447
 40
3.588551735127004
 40
3.919177605417826
 40
3.919177605417826
 40
3.919177605417826
 40
3.919177605417826
 10
-25.12450981285383
 20
1570.916363864447
 30
0.0
 10
-25.11265364739938
 20
1571.228183158957
 30
0.0
 10
-25.09047666868719
 20
1571.758567965401
 30
0.0
 10
-25.0342341123378
 20
1572.458936076054
 30
0.0
 10
-24.95572246430311
 20
1572.981617172459
 30
0.0
 10
-24.84167179300857
 20
1573.403222844234
 30
0.0
 10
-24.67785674094284
 20
1573.748684864272
 30
0.0
 10
-24.45194335542783
 20
1574.027682942743
 30
0.0
 10
-24.17345661530635
 20
1574.228109915516
 30
0.0
 10
-23.96082343531089
 20
1574.304659173855
 30
0.0
 10
-23.85294376439197
 20
1574.327234704392
 30
0.0
  0
SPLINE
  5
8F
330
1F
100
AcDbEntity
  8
Table_Miura_9590-71_2D
100
AcDbSpline
210
0.0
220
0.0
230
1.0
 70
     8
 71
     5
 72
    12
 73
     6
 74
     0
 42
0.0000000001
 43
0.0000000001
 40
-1.0
 40
-1.0
 40
-1.0
 40
-1.0
 40
-1.0
 40
-1.0
 40
0.0
 40
0.0
 40
0.0
 40
0.0
 40
0.0
 40
0.0
 10
-25.15063961904798
 20
1570.163537494744
 30
0.0
 10
-25.14535140965927
 20
1570.314100595233
 30
0.0
 10
-25.14032381387733
 20
1570.464672849223
 30
0.0
 10
-25.13572893765649
 20
1570.61526083653
 30
0.0
 10
-25.13023399996291
 20
1570.765816708813
 30
0.0
 10
-25.12450981285383
 20
1570.916363864447
 30
0.0
  0
SPLINE
  5
90
330
1F
100
AcDbEntity
  8
Table_Miura_9590-71_2D
100
AcDbSpline
210
0.0
220
0.0
230
1.0
 70
    12
 71
     2
 72
     6
 73
     3
 74
     0
 42
0.0000000001
 43
0.0000000001
 40
-0.3764503268402766
 40
-0.3764503268402766
 40
-0.3764503268402766
 40
0.0
 40
0.0
 40
0.0
 10
-25.16450434144917
 20
1569.787342762374
 30
0.0
 41
1.0
 10
-25.15724656110802
 20
1569.975428135179
 30
0.0
 41
0.9999985034549737
 10
-25.15063961904798
 20
1570.163537494744
 30
0.0
 41
1.0
  0
SPLINE
  5
91
330
1F
100
AcDbEntity
  8
Table_Miura_9590-71_2D
100
AcDbSpline
210
0.0
220
0.0
230
1.0
 70
    12
 71
     2
 72
     6
 73
     3
 74
     0
 42
0.0000000001
 43
0.0000000001
 40
-0.8650636015552053
 40
-0.8650636015552053
 40
-0.8650636015552053
 40
0.0
 40
0.0
 40
0.0
 10
-25.20315418998969
 20
1568.923144472737
 30
0.0
 41
0.9999999999998899
 10
-25.18245262805397
 20
1569.3551820497
 30
0.0
 41
0.9999949169942275
 10
-25.16450434144917
 20
1569.787342762374
 30
0.0
 41
1.0
  0
SPLINE
  5
92
330
1F
100
AcDbEntity
  8
Table_Miura_9590-71_2D
100
AcDbSpline
210
0.0
220
0.0
230
1.0
 70
    12
 71
     2
 72
     6
 73
     3
 74
     0
 42
0.0000000001
 43
0.0000000001
 40
0.0
 40
0.0
 40
0.0
 40
0.0174069048050353
 40
0.0174069048050353
 40
0.0174069048050353
 10
-25.20390396217408
 20
1568.905753721283
 30
0.0
 41
1.0
 10
-25.20352919290611
 20
1568.914449101955
 30
0.0
 41
0.9999999593102533
 10
-25.20315418998962
 20
1568.923144472737
 30
0.0
 41
1.0
  0
SPLINE
  5
93
330
1F
100
AcDbEntity
  8
Table_Miura_9590-71_2D
100
AcDbSpline
210
0.0
220
0.0
230
1.0
 70
    12
 71
     2
 72
     6
 73
     3
 74
     0
 42
0.0000000001
 43
0.0000000001
 40
-0.0038962172915295
 40
-0.0038962172915295
 40
-0.0038962172915295
 40
0.0
 40
0.0
 40
0.0
 10
-25.20405249918895
 20
1568.901860289142
 30
0.0
 41
1.0
 10
-25.20398985246561
 20
1568.903807505103
 30
0.0
 41
0.9999999970873399
 10
-25.20390396217408
 20
1568.905753721283
 30
0.0
 41
1.0
  0
SPLINE
  5
94
330
1F
100
AcDbEntity
  8
Table_Miura_9590-71_2D
100
AcDbSpline
210
0.0
220
0.0
230
1.0
 70
     8
 71
     3
 72
    15
 73
    11
 74
     0
 42
0.0000000001
 43
0.0000000001
 40
0.0
 40
0.0
 40
0.0
 40
0.0
 40
2.763377139235543
 40
5.271537957085918
 40
10.5998510122942
 40
21.59382453005134
 40
32.87822943471981
 40
38.64978450157577
 40
41.3966023543671
 40
44.15779849543482
 40
44.15779849543482
 40
44.15779849543482
 40
44.15779849543482
 10
-37.860585453358
 20
1527.095668640656
 30
0.0
 10
-37.37588947208224
 20
1527.878795330581
 30
0.0
 10
-36.45841320222553
 20
1529.378035692674
 30
0.0
 10
-34.73629597879062
 20
1532.46366800198
 30
0.0
 10
-31.9672753451041
 20
1538.101269603499
 30
0.0
 10
-28.75361731848079
 20
1546.74456658658
 30
0.0
 10
-26.61448722374007
 20
1555.864684564942
 30
0.0
 10
-25.69991076587849
 20
1562.405063897232
 30
0.0
 10
-25.35096906454328
 20
1566.149147629375
 30
0.0
 10
-25.24417480083048
 20
1567.982374934249
 30
0.0
 10
-25.20405249918895
 20
1568.901860289142
 30
0.0
  0
SPLINE
  5
95
330
1F
100
AcDbEntity
  8
Table_Miura_9590-71_2D
100
AcDbSpline
210
0.0
220
0.0
230
1.0
 70
     8
 71
     5
 72
    12
 73
     6
 74
     0
 42
0.0000000001
 43
0.0000000001
 40
-1.0
 40
-1.0
 40
-1.0
 40
-1.0
 40
-1.0
 40
-1.0
 40
0.0
 40
0.0
 40
0.0
 40
0.0
 40
0.0
 40
0.0
 10
-37.87721928705832
 20
1527.06872602513
 30
0.0
 10
-37.87389004900342
 20
1527.074113021712
 30
0.0
 10
-37.87056091958857
 20
1527.079500085434
 30
0.0
 10
-37.8672511782288
 20
1527.084899130696
 30
0.0
 10
-37.86391823784379
 20
1527.090283837431
 30
0.0
 10
-37.860585453358
 20
1527.095668640656
 30
0.0
  0
SPLINE
  5
96
330
1F
100
AcDbEntity
  8
Table_Miura_9590-71_2D
100
AcDbSpline
210
0.0
220
0.0
230
1.0
 70
     8
 71
     3
 72
    18
 73
    14
 74
     0
 42
0.0000000001
 43
0.0000000001
 40
0.0
 40
0.0
 40
0.0
 40
0.0
 40
1.224399517688125
 40
3.216127340650388
 40
5.359452356478953
 40
6.616257952753485
 40
8.473068222320627
 40
11.37665901709092
 40
13.15870189535763
 40
18.5887311986106
 40
21.30318735092228
 40
22.53576743944416
 40
23.95196467547641
 40
23.95196467547641
 40
23.95196467547641
 40
23.95196467547641
 10
-52.50665096721514
 20
1508.147754069529
 30
0.0
 10
-52.23975132457508
 20
1508.456526356205
 30
0.0
 10
-51.53841222842857
 20
1509.267311530798
 30
0.0
 10
-50.3702222433476
 20
1510.618954921774
 30
0.0
 10
-49.18944519123215
 20
1511.973918079807
 30
0.0
 10
-48.0390209323823
 20
1513.295744642926
 30
0.0
 10
-46.73393775429031
 20
1514.818789982616
 30
0.0
 10
-45.34309688435314
 20
1516.49881735029
 30
0.0
 10
-43.25649248572427
 20
1519.147694976758
 30
0.0
 10
-41.30113304855058
 20
1521.818432965202
 30
0.0
 10
-39.55744785552361
 20
1524.412900104121
 30
0.0
 10
-38.59092881380275
 20
1525.916911646302
 30
0.0
 10
-38.12539052080228
 20
1526.667163395545
 30
0.0
 10
-37.87721928705832
 20
1527.06872602513
 30
0.0
  0
SPLINE
  5
97
330
1F
100
AcDbEntity
  8
Table_Miura_9590-71_2D
100
AcDbSpline
210
0.0
220
0.0
230
1.0
 70
     8
 71
     5
 72
    12
 73
     6
 74
     0
 42
0.0000000001
 43
0.0000000001
 40
-1.0
 40
-1.0
 40
-1.0
 40
-1.0
 40
-1.0
 40
-1.0
 40
0.0
 40
0.0
 40
0.0
 40
0.0
 40
0.0
 40
0.0
 10
-52.54829839391095
 20
1508.099663897092
 30
0.0
 10
-52.53996893084695
 20
1508.109281950871
 30
0.0
 10
-52.53163946778295
 20
1508.118900004649
 30
0.0
 10
-52.52329182290032
 20
1508.12850232738
 30
0.0
 10
-52.51497143958022
 20
1508.13812823694
 30
0.0
 10
-52.50665096721514
 20
1508.147754069529
 30
0.0
  0
SPLINE
  5
98
330
1F
100
AcDbEntity
  8
Table_Miura_9590-71_2D
100
AcDbSpline
210
0.0
220
0.0
230
1.0
 70
    24
 71
     2
 72
     6
 73
     3
 74
     0
 42
0.0000000001
 43
0.0000000001
 40
0.0
 40
0.0
 40
0.0
 40
405.4330160665159
 40
405.4330160665159
 40
405.4330160665159
 10
-317.9659450783047
 20
1201.621181426539
 30
0.0
 10
-185.2571217361078
 20
1354.860422661816
 30
0.0
 10
-52.54829839391095
 20
1508.099663897092
 30
0.0
  0
LINE
  5
99
330
1F
100
AcDbEntity
  8
Table_Miura_9590-71_2D
100
AcDbLine
 10
-273.2978207079132
 20
1201.621766033141
 30
0.0
 11
-317.9659450783047
 21
1201.621181426539
 31
0.0
  0
SPLINE
  5
9A
330
1F
100
AcDbEntity
  8
Table_Miura_9590-71_2D
100
AcDbSpline
210
0.0
220
0.0
230
1.0
 70
    24
 71
     2
 72
     6
 73
     3
 74
     0
 42
0.0000000001
 43
0.0000000001
 40
0.0
 40
0.0
 40
0.0
 40
382.1184799122444
 40
382.1184799122444
 40
382.1184799122444
 10
-23.14272770193202
 20
1490.475951010376
 30
0.0
 10
-148.2202742049226
 20
1346.048858521759
 30
0.0
 10
-273.2978207079132
 20
1201.621766033141
 30
0.0
  0
SPLINE
  5
9B
330
1F
100
AcDbEntity
  8
Table_Miura_9590-71_2D
100
AcDbSpline
210
0.0
220
0.0
230
1.0
 70
     8
 71
     5
 72
    12
 73
     6
 74
     0
 42
0.0000000001
 43
0.0000000001
 40
0.0
 40
0.0
 40
0.0
 40
0.0
 40
0.0
 40
0.0
 40
1.0
 40
1.0
 40
1.0
 40
1.0
 40
1.0
 40
1.0
 10
-23.12824927489419
 20
1490.492327183465
 30
0.0
 10
-23.13113593759226
 20
1490.489043993819
 30
0.0
 10
-23.13402252887681
 20
1490.485760741386
 30
0.0
 10
-23.13700374348991
 20
1490.482560467456
 30
0.0
 10
-23.13986572271097
 20
1490.479255738916
 30
0.0
 10
-23.14272770193202
 20
1490.475951010376
 30
0.0
  0
SPLINE
  5
9C
330
1F
100
AcDbEntity
  8
Table_Miura_9590-71_2D
100
AcDbSpline
210
0.0
220
0.0
230
1.0
 70
     8
 71
     3
 72
    15
 73
    11
 74
     0
 42
0.0000000001
 43
0.0000000001
 40
0.0
 40
0.0
 40
0.0
 40
0.0
 40
0.8793827298841641
 40
1.776264706140459
 40
3.639233357410877
 40
7.666287083349559
 40
9.953021317401364
 40
12.30992601284868
 40
14.68355992114336
 40
17.32695060162204
 40
17.32695060162204
 40
17.32695060162204
 40
17.32695060162204
 10
-10.20852652435224
 20
1501.928866676154
 30
0.0
 10
-10.46186959024999
 20
1501.781577147637
 30
0.0
 10
-10.96997610886046
 20
1501.477040506018
 30
0.0
 10
-11.99016867559385
 20
1500.821202175739
 30
0.0
 10
-13.84445955659885
 20
1499.52239299924
 30
0.0
 10
-15.94418193196543
 20
1497.780956348972
 30
0.0
 10
-18.07419058122559
 20
1495.827108516811
 30
0.0
 10
-19.73867716786663
 20
1494.183037408222
 30
0.0
 10
-21.43544190133343
 20
1492.404344970112
 30
0.0
 10
-22.54647285941246
 20
1491.15401942238
 30
0.0
 10
-23.12824927489419
 20
1490.492327183465
 30
0.0
  0
SPLINE
  5
9D
330
1F
100
AcDbEntity
  8
Table_Miura_9590-71_2D
100
AcDbSpline
210
0.0
220
0.0
230
1.0
 70
    12
 71
     2
 72
     6
 73
     3
 74
     0
 42
0.0000000001
 43
0.0000000001
 40
-0.1469556320606097
 40
-0.1469556320606097
 40
-0.1469556320606097
 40
0.0
 40
0.0
 40
0.0
 10
-10.0816587570198
 20
1502.003031970871
 30
0.0
 41
1.0
 10
-10.14499973390198
 20
1501.965790433733
 30
0.0
 41
0.9999969449633207
 10
-10.20852652435224
 20
1501.928866676154
 30
0.0
 41
1.0
  0
SPLINE
  5
9E
330
1F
100
AcDbEntity
  8
Table_Miura_9590-71_2D
100
AcDbSpline
210
0.0
220
0.0
230
1.0
 70
     8
 71
     5
 72
    12
 73
     6
 74
     0
 42
0.0000000001
 43
0.0000000001
 40
0.0
 40
0.0
 40
0.0
 40
0.0
 40
0.0
 40
0.0
 40
1.0
 40
1.0
 40
1.0
 40
1.0
 40
1.0
 40
1.0
 10
-10.06502878969332
 20
1502.012801463422
 30
0.0
 10
-10.06835569933264
 20
1502.010849125293
 30
0.0
 10
-10.0716821580445
 20
1502.008896018755
 30
0.0
 10
-10.07500851569785
 20
1502.006942737858
 30
0.0
 10
-10.07833347566611
 20
1502.004987081056
 30
0.0
 10
-10.0816587570198
 20
1502.003031970871
 30
0.0
  0
SPLINE
  5
9F
330
1F
100
AcDbEntity
  8
Table_Miura_9590-71_2D
100
AcDbSpline
210
0.0
220
0.0
230
1.0
 70
    12
 71
     2
 72
     6
 73
     3
 74
     0
 42
0.0000000001
 43
0.0000000001
 40
-1.059455396730206
 40
-1.059455396730206
 40
-1.059455396730206
 40
0.0
 40
0.0
 40
0.0
 10
-9.138077268464258
 20
1502.525603314525
 30
0.0
 41
1.0
 10
-9.608060415222637
 20
1502.280965278425
 30
0.0
 41
0.9996780901699671
 10
-10.06502878969332
 20
1502.012801463422
 30
0.0
 41
1.0
  0
SPLINE
  5
A0
330
1F
100
AcDbEntity
  8
Table_Miura_9590-71_2D
100
AcDbSpline
210
0.0
220
0.0
230
1.0
 70
     8
 71
     5
 72
    12
 73
     6
 74
     0
 42
0.0000000001
 43
0.0000000001
 40
-1.0
 40
-1.0
 40
-1.0
 40
-1.0
 40
-1.0
 40
-1.0
 40
0.0
 40
0.0
 40
0.0
 40
0.0
 40
0.0
 40
0.0
 10
-7.886179101621565
 20
1503.125037032215
 30
0.0
 10
-8.140460587838788
 20
1503.013665052576
 30
0.0
 10
-8.392919921901921
 20
1502.898132784509
 30
0.0
 10
-8.643466636982339
 20
1502.777858705622
 30
0.0
 10
-8.89183718403092
 20
1502.653777465195
 30
0.0
 10
-9.138077268464258
 20
1502.525603314525
 30
0.0
  0
SPLINE
  5
A1
330
1F
100
AcDbEntity
  8
Table_Miura_9590-71_2D
100
AcDbSpline
210
0.0
220
0.0
230
1.0
 70
     8
 71
     3
 72
    11
 73
     7
 74
     0
 42
0.0000000001
 43
0.0000000001
 40
-7.168114128633167
 40
-7.168114128633167
 40
-7.168114128633167
 40
-7.168114128633167
 40
-3.620644636221537
 40
-1.83413863357669
 40
-0.9078897846316704
 40
0.0
 40
0.0
 40
0.0
 40
0.0
 10
-0.9518539976625107
 20
1504.778766997821
 30
0.0
 10
-2.132894659215708
 20
1504.719233447706
 30
0.0
 10
-3.900065845601603
 20
1504.464800468292
 30
0.0
 10
-5.907992042350998
 20
1503.888958943402
 30
0.0
 10
-7.043673125822352
 20
1503.479759487426
 30
0.0
 10
-7.608985579817272
 20
1503.246444185076
 30
0.0
 10
-7.886179101621565
 20
1503.125037032215
 30
0.0
  0
SPLINE
  5
A2
330
1F
100
AcDbEntity
  8
Table_Miura_9590-71_2D
100
AcDbSpline
210
0.0
220
0.0
230
1.0
 70
    12
 71
     2
 72
     6
 73
     3
 74
     0
 42
0.0000000001
 43
0.0000000001
 40
0.0
 40
0.0
 40
0.0
 40
1.522042370303902
 40
1.522042370303902
 40
1.522042370303902
 10
-0.0002123606356052
 20
1505.776864588906
 30
0.0
 41
0.9999999691280613
 10
-0.0003450956886074
 20
1504.824268351594
 30
0.0
 41
0.7239225688158022
 10
-0.9518539976625107
 20
1504.778766997821
 30
0.0
 41
1.0
  0
SPLINE
  5
A3
330
1F
100
AcDbEntity
  8
Table_Miura_9590-71_2D
100
AcDbSpline
210
0.0
220
0.0
230
1.0
 70
    12
 71
     2
 72
     6
 73
     3
 74
     0
 42
0.0000000001
 43
0.0000000001
 40
-1.522042370303902
 40
-1.522042370303902
 40
-1.522042370303902
 40
0.0
 40
0.0
 40
0.0
 10
0.9514292763915364
 20
1504.778766997821
 30
0.0
 41
1.0
 10
-0.0000796255818667
 20
1504.824268351594
 30
0.0
 41
0.7239225688158022
 10
-0.0002123606356052
 20
1505.776864588906
 30
0.0
 41
0.9999999691280613
  0
SPLINE
  5
A4
330
1F
100
AcDbEntity
  8
Table_Miura_9590-71_2D
100
AcDbSpline
210
0.0
220
0.0
230
1.0
 70
     8
 71
     3
 72
    11
 73
     7
 74
     0
 42
0.0000000001
 43
0.0000000001
 40
0.0
 40
0.0
 40
0.0
 40
0.0
 40
0.9078897846316704
 40
1.83413863357669
 40
3.620644636221537
 40
7.168114128633167
 40
7.168114128633167
 40
7.168114128633167
 40
7.168114128633167
 10
7.885754380350591
 20
1503.125037032215
 30
0.0
 10
7.608560858546298
 20
1503.246444185076
 30
0.0
 10
7.043248404551377
 20
1503.479759487426
 30
0.0
 10
5.907567321080023
 20
1503.888958943402
 30
0.0
 10
3.899641124330628
 20
1504.464800468292
 30
0.0
 10
2.132469937944734
 20
1504.719233447706
 30
0.0
 10
0.9514292763915364
 20
1504.778766997821
 30
0.0
  0
SPLINE
  5
A5
330
1F
100
AcDbEntity
  8
Table_Miura_9590-71_2D
100
AcDbSpline
210
0.0
220
0.0
230
1.0
 70
     8
 71
     5
 72
    12
 73
     6
 74
     0
 42
0.0000000001
 43
0.0000000001
 40
0.0
 40
0.0
 40
0.0
 40
0.0
 40
0.0
 40
0.0
 40
1.0
 40
1.0
 40
1.0
 40
1.0
 40
1.0
 40
1.0
 10
9.137652547193284
 20
1502.525603314525
 30
0.0
 10
8.891412462759945
 20
1502.653777465195
 30
0.0
 10
8.643041915711365
 20
1502.777858705622
 30
0.0
 10
8.392495200630947
 20
1502.898132784509
 30
0.0
 10
8.140035866567814
 20
1503.013665052576
 30
0.0
 10
7.885754380350591
 20
1503.125037032215
 30
0.0
  0
SPLINE
  5
A6
330
1F
100
AcDbEntity
  8
Table_Miura_9590-71_2D
100
AcDbSpline
210
0.0
220
0.0
230
1.0
 70
    12
 71
     2
 72
     6
 73
     3
 74
     0
 42
0.0000000001
 43
0.0000000001
 40
0.0
 40
0.0
 40
0.0
 40
1.059455396730206
 40
1.059455396730206
 40
1.059455396730206
 10
10.06460406842234
 20
1502.012801463422
 30
0.0
 41
1.0
 10
9.60763569395128
 20
1502.280965278425
 30
0.0
 41
0.9996780901699671
 10
9.137652547193284
 20
1502.525603314525
 30
0.0
 41
1.0
  0
SPLINE
  5
A7
330
1F
100
AcDbEntity
  8
Table_Miura_9590-71_2D
100
AcDbSpline
210
0.0
220
0.0
230
1.0
 70
     8
 71
     5
 72
    12
 73
     6
 74
     0
 42
0.0000000001
 43
0.0000000001
 40
-1.0
 40
-1.0
 40
-1.0
 40
-1.0
 40
-1.0
 40
-1.0
 40
0.0
 40
0.0
 40
0.0
 40
0.0
 40
0.0
 40
0.0
 10
10.08123403574882
 20
1502.003031970871
 30
0.0
 10
10.07790875439514
 20
1502.004987081056
 30
0.0
 10
10.07458379442687
 20
1502.006942737858
 30
0.0
 10
10.07125743677352
 20
1502.008896018755
 30
0.0
 10
10.06793097806167
 20
1502.010849125293
 30
0.0
 10
10.06460406842234
 20
1502.012801463422
 30
0.0
  0
SPLINE
  5
A8
330
1F
100
AcDbEntity
  8
Table_Miura_9590-71_2D
100
AcDbSpline
210
0.0
220
0.0
230
1.0
 70
    12
 71
     2
 72
     6
 73
     3
 74
     0
 42
0.0000000001
 43
0.0000000001
 40
0.0
 40
0.0
 40
0.0
 40
0.1469556320606097
 40
0.1469556320606097
 40
0.1469556320606097
 10
10.20810180308126
 20
1501.928866676154
 30
0.0
 41
1.0
 10
10.14457501263129
 20
1501.965790433733
 30
0.0
 41
0.9999969449633207
 10
10.08123403574882
 20
1502.003031970871
 30
0.0
 41
1.0
  0
SPLINE
  5
A9
330
1F
100
AcDbEntity
  8
Table_Miura_9590-71_2D
100
AcDbSpline
210
0.0
220
0.0
230
1.0
 70
     8
 71
     3
 72
    15
 73
    11
 74
     0
 42
0.0000000001
 43
0.0000000001
 40
-17.32695060162204
 40
-17.32695060162204
 40
-17.32695060162204
 40
-17.32695060162204
 40
-14.68355992114336
 40
-12.30992601284868
 40
-9.953021317401364
 40
-7.666287083349559
 40
-3.639233357410877
 40
-1.776264706140459
 40
-0.8793827298841641
 40
0.0
 40
0.0
 40
0.0
 40
0.0
 10
23.12782455362321
 20
1490.492327183465
 30
0.0
 10
22.54604813814149
 20
1491.15401942238
 30
0.0
 10
21.43501718006246
 20
1492.404344970112
 30
0.0
 10
19.73825244659565
 20
1494.183037408222
 30
0.0
 10
18.07376585995462
 20
1495.827108516811
 30
0.0
 10
15.94375721069446
 20
1497.780956348972
 30
0.0
 10
13.84403483532788
 20
1499.52239299924
 30
0.0
 10
11.98974395432288
 20
1500.821202175739
 30
0.0
 10
10.96955138758949
 20
1501.477040506018
 30
0.0
 10
10.46144486897902
 20
1501.781577147637
 30
0.0
 10
10.20810180308126
 20
1501.928866676154
 30
0.0
  0
SPLINE
  5
AA
330
1F
100
AcDbEntity
  8
Table_Miura_9590-71_2D
100
AcDbSpline
210
0.0
220
0.0
230
1.0
 70
     8
 71
     5
 72
    12
 73
     6
 74
     0
 42
0.0000000001
 43
0.0000000001
 40
-1.0
 40
-1.0
 40
-1.0
 40
-1.0
 40
-1.0
 40
-1.0
 40
0.0
 40
0.0
 40
0.0
 40
0.0
 40
0.0
 40
0.0
 10
23.14230298066104
 20
1490.475951010376
 30
0.0
 10
23.13944100143999
 20
1490.479255738916
 30
0.0
 10
23.13657902221894
 20
1490.482560467456
 30
0.0
 10
23.13359780760584
 20
1490.485760741386
 30
0.0
 10
23.13071121632129
 20
1490.489043993819
 30
0.0
 10
23.12782455362321
 20
1490.492327183465
 30
0.0
  0
SPLINE
  5
AB
330
1F
100
AcDbEntity
  8
Table_Miura_9590-71_2D
100
AcDbSpline
210
0.0
220
0.0
230
1.0
 70
    24
 71
     2
 72
     6
 73
     3
 74
     0
 42
0.0000000001
 43
0.0000000001
 40
-382.1184799122444
 40
-382.1184799122444
 40
-382.1184799122444
 40
0.0
 40
0.0
 40
0.0
 10
273.2973959866422
 20
1201.621766033141
 30
0.0
 10
148.2198494836516
 20
1346.048858521759
 30
0.0
 10
23.14230298066104
 20
1490.475951010376
 30
0.0
  0
LINE
  5
AC
330
1F
100
AcDbEntity
  8
Table_Miura_9590-71_2D
100
AcDbLine
 10
317.9655203570337
 20
1201.621181426539
 30
0.0
 11
273.2973959866422
 21
1201.621766033141
 31
0.0
  0
SPLINE
  5
AD
330
1F
100
AcDbEntity
  8
Table_Miura_9590-71_2D
100
AcDbSpline
210
0.0
220
0.0
230
1.0
 70
    24
 71
     2
 72
     6
 73
     3
 74
     0
 42
0.0000000001
 43
0.0000000001
 40
-405.4330160665159
 40
-405.4330160665159
 40
-405.4330160665159
 40
0.0
 40
0.0
 40
0.0
 10
52.54787367263998
 20
1508.099663897092
 30
0.0
 10
185.2566970148368
 20
1354.860422661816
 30
0.0
 10
317.9655203570337
 20
1201.621181426539
 30
0.0
  0
SPLINE
  5
AE
330
1F
100
AcDbEntity
  8
Table_Miura_9590-71_2D
100
AcDbSpline
210
0.0
220
0.0
230
1.0
 70
     8
 71
     5
 72
    12
 73
     6
 74
     0
 42
0.0000000001
 43
0.0000000001
 40
0.0
 40
0.0
 40
0.0
 40
0.0
 40
0.0
 40
0.0
 40
1.0
 40
1.0
 40
1.0
 40
1.0
 40
1.0
 40
1.0
 10
52.50622624594416
 20
1508.147754069529
 30
0.0
 10
52.51454671830925
 20
1508.13812823694
 30
0.0
 10
52.52286710162934
 20
1508.12850232738
 30
0.0
 10
52.53121474651198
 20
1508.118900004649
 30
0.0
 10
52.53954420957598
 20
1508.109281950871
 30
0.0
 10
52.54787367263998
 20
1508.099663897092
 30
0.0
  0
SPLINE
  5
AF
330
1F
100
AcDbEntity
  8
Table_Miura_9590-71_2D
100
AcDbSpline
210
0.0
220
0.0
230
1.0
 70
     8
 71
     3
 72
    18
 73
    14
 74
     0
 42
0.0000000001
 43
0.0000000001
 40
-23.95196467547641
 40
-23.95196467547641
 40
-23.95196467547641
 40
-23.95196467547641
 40
-22.53576743944416
 40
-21.30318735092228
 40
-18.5887311986106
 40
-13.15870189535763
 40
-11.37665901709092
 40
-8.473068222320627
 40
-6.616257952753485
 40
-5.359452356478953
 40
-3.216127340650388
 40
-1.224399517688125
 40
0.0
 40
0.0
 40
0.0
 40
0.0
 10
37.87679456578735
 20
1527.06872602513
 30
0.0
 10
38.12496579953131
 20
1526.667163395545
 30
0.0
 10
38.59050409253177
 20
1525.916911646302
 30
0.0
 10
39.55702313425263
 20
1524.412900104121
 30
0.0
 10
41.30070832727961
 20
1521.818432965202
 30
0.0
 10
43.25606776445329
 20
1519.147694976758
 30
0.0
 10
45.34267216308217
 20
1516.49881735029
 30
0.0
 10
46.73351303301934
 20
1514.818789982616
 30
0.0
 10
48.03859621111133
 20
1513.295744642926
 30
0.0
 10
49.18902046996118
 20
1511.973918079807
 30
0.0
 10
50.36979752207662
 20
1510.618954921774
 30
0.0
 10
51.5379875071576
 20
1509.267311530798
 30
0.0
 10
52.23932660330411
 20
1508.456526356205
 30
0.0
 10
52.50622624594416
 20
1508.147754069529
 30
0.0
  0
SPLINE
  5
B0
330
1F
100
AcDbEntity
  8
Table_Miura_9590-71_2D
100
AcDbSpline
210
0.0
220
0.0
230
1.0
 70
     8
 71
     5
 72
    12
 73
     6
 74
     0
 42
0.0000000001
 43
0.0000000001
 40
0.0
 40
0.0
 40
0.0
 40
0.0
 40
0.0
 40
0.0
 40
1.0
 40
1.0
 40
1.0
 40
1.0
 40
1.0
 40
1.0
 10
37.86016073208702
 20
1527.095668640656
 30
0.0
 10
37.86349351657282
 20
1527.090283837431
 30
0.0
 10
37.86682645695782
 20
1527.084899130696
 30
0.0
 10
37.8701361983176
 20
1527.079500085434
 30
0.0
 10
37.87346532773245
 20
1527.074113021712
 30
0.0
 10
37.87679456578735
 20
1527.06872602513
 30
0.0
  0
SPLINE
  5
B1
330
1F
100
AcDbEntity
  8
Table_Miura_9590-71_2D
100
AcDbSpline
210
0.0
220
0.0
230
1.0
 70
     8
 71
     3
 72
    15
 73
    11
 74
     0
 42
0.0000000001
 43
0.0000000001
 40
-44.15779849543482
 40
-44.15779849543482
 40
-44.15779849543482
 40
-44.15779849543482
 40
-41.3966023543671
 40
-38.64978450157577
 40
-32.87822943471981
 40
-21.59382453005134
 40
-10.5998510122942
 40
-5.271537957085918
 40
-2.763377139235543
 40
0.0
 40
0.0
 40
0.0
 40
0.0
 10
25.20362777791797
 20
1568.901860289142
 30
0.0
 10
25.2437500795595
 20
1567.982374934249
 30
0.0
 10
25.3505443432723
 20
1566.149147629375
 30
0.0
 10
25.69948604460751
 20
1562.405063897232
 30
0.0
 10
26.6140625024691
 20
1555.864684564942
 30
0.0
 10
28.75319259720982
 20
1546.74456658658
 30
0.0
 10
31.96685062383312
 20
1538.101269603499
 30
0.0
 10
34.73587125751965
 20
1532.46366800198
 30
0.0
 10
36.45798848095455
 20
1529.378035692674
 30
0.0
 10
37.37546475081126
 20
1527.878795330581
 30
0.0
 10
37.86016073208702
 20
1527.095668640656
 30
0.0
  0
SPLINE
  5
B2
330
1F
100
AcDbEntity
  8
Table_Miura_9590-71_2D
100
AcDbSpline
210
0.0
220
0.0
230
1.0
 70
    12
 71
     2
 72
     6
 73
     3
 74
     0
 42
0.0000000001
 43
0.0000000001
 40
0.0
 40
0.0
 40
0.0
 40
0.0038962172915295
 40
0.0038962172915295
 40
0.0038962172915295
 10
25.20347924090311
 20
1568.905753721283
 30
0.0
 41
1.0
 10
25.20356513119452
 20
1568.903807505103
 30
0.0
 41
0.9999999970873399
 10
25.20362777791797
 20
1568.901860289142
 30
0.0
 41
1.0
  0
SPLINE
  5
B3
330
1F
100
AcDbEntity
  8
Table_Miura_9590-71_2D
100
AcDbSpline
210
0.0
220
0.0
230
1.0
 70
    12
 71
     2
 72
     6
 73
     3
 74
     0
 42
0.0000000001
 43
0.0000000001
 40
-0.0174069048050353
 40
-0.0174069048050353
 40
-0.0174069048050353
 40
0.0
 40
0.0
 40
0.0
 10
25.20272946871864
 20
1568.923144472737
 30
0.0
 41
1.0
 10
25.20310447163471
 20
1568.914449101955
 30
0.0
 41
0.9999999593102533
 10
25.20347924090311
 20
1568.905753721283
 30
0.0
 41
1.0
  0
SPLINE
  5
B4
330
1F
100
AcDbEntity
  8
Table_Miura_9590-71_2D
100
AcDbSpline
210
0.0
220
0.0
230
1.0
 70
    12
 71
     2
 72
     6
 73
     3
 74
     0
 42
0.0000000001
 43
0.0000000001
 40
0.0
 40
0.0
 40
0.0
 40
0.8650636015552053
 40
0.8650636015552053
 40
0.8650636015552053
 10
25.1640796201782
 20
1569.787342762374
 30
0.0
 41
1.0
 10
25.18202790678284
 20
1569.3551820497
 30
0.0
 41
0.9999949169942275
 10
25.20272946871867
 20
1568.923144472737
 30
0.0
 41
0.9999999999998899
  0
SPLINE
  5
B5
330
1F
100
AcDbEntity
  8
Table_Miura_9590-71_2D
100
AcDbSpline
210
0.0
220
0.0
230
1.0
 70
    12
 71
     2
 72
     6
 73
     3
 74
     0
 42
0.0000000001
 43
0.0000000001
 40
0.0
 40
0.0
 40
0.0
 40
0.3764503268402766
 40
0.3764503268402766
 40
0.3764503268402766
 10
25.150214897777
 20
1570.163537494744
 30
0.0
 41
1.0
 10
25.15682183983749
 20
1569.975428135179
 30
0.0
 41
0.9999985034549737
 10
25.1640796201782
 20
1569.787342762374
 30
0.0
 41
1.0
  0
SPLINE
  5
B6
330
1F
100
AcDbEntity
  8
Table_Miura_9590-71_2D
100
AcDbSpline
210
0.0
220
0.0
230
1.0
 70
     8
 71
     5
 72
    12
 73
     6
 74
     0
 42
0.0000000001
 43
0.0000000001
 40
0.0
 40
0.0
 40
0.0
 40
0.0
 40
0.0
 40
0.0
 40
1.0
 40
1.0
 40
1.0
 40
1.0
 40
1.0
 40
1.0
 10
25.12408509158286
 20
1570.916363864447
 30
0.0
 10
25.12980927869194
 20
1570.765816708813
 30
0.0
 10
25.13530421638552
 20
1570.61526083653
 30
0.0
 10
25.13989909260636
 20
1570.464672849223
 30
0.0
 10
25.1449266883883
 20
1570.314100595233
 30
0.0
 10
25.150214897777
 20
1570.163537494744
 30
0.0
  0
SPLINE
  5
B7
330
1F
100
AcDbEntity
  8
Table_Miura_9590-71_2D
100
AcDbSpline
210
0.0
220
0.0
230
1.0
 70
     8
 71
     3
 72
    15
 73
    11
 74
     0
 42
0.0000000001
 43
0.0000000001
 40
-3.919177605417826
 40
-3.919177605417826
 40
-3.919177605417826
 40
-3.919177605417826
 40
-3.588551735127004
 40
-3.247808135525447
 40
-2.899529664530077
 40
-2.520270126564129
 40
-2.107271700881924
 40
-1.592389293923229
 40
-0.9361505302432512
 40
0.0
 40
0.0
 40
0.0
 40
0.0
 10
23.85251904312099
 20
1574.327234704392
 30
0.0
 10
23.96039871403991
 20
1574.304659173855
 30
0.0
 10
24.17303189403538
 20
1574.228109915516
 30
0.0
 10
24.45151863415686
 20
1574.027682942743
 30
0.0
 10
24.67743201967187
 20
1573.748684864272
 30
0.0
 10
24.8412470717376
 20
1573.403222844234
 30
0.0
 10
24.95529774303213
 20
1572.981617172459
 30
0.0
 10
25.03380939106682
 20
1572.458936076054
 30
0.0
 10
25.09005194741621
 20
1571.758567965401
 30
0.0
 10
25.11222892612841
 20
1571.228183158957
 30
0.0
 10
25.12408509158286
 20
1570.916363864447
 30
0.0
  0
LINE
  5
B8
330
1F
100
AcDbEntity
  8
Table_Miura_9590-71_2D
100
AcDbLine
 10
21.65077798628317
 20
1574.327142360398
 30
0.0
 11
23.85251904312099
 21
1574.327234704392
 31
0.0
  0
SPLINE
  5
B9
330
1F
100
AcDbEntity
  8
Table_Miura_9590-71_2D
100
AcDbSpline
210
0.0
220
0.0
230
1.0
 70
     8
 71
     3
 72
    18
 73
    14
 74
     0
 42
0.0000000001
 43
0.0000000001
 40
0.0
 40
0.0
 40
0.0
 40
0.0
 40
1.285072805565842
 40
2.530514856758515
 40
3.713958932632885
 40
4.870777299577194
 40
5.506991273313297
 40
5.827549416049516
 40
6.129926738348679
 40
6.413782533532999
 40
6.716881895257425
 40
7.387935346890758
 40
11.35744832993483
 40
11.35744832993483
 40
11.35744832993483
 40
11.35744832993483
 10
12.56031880717455
 20
1570.163251999589
 30
0.0
 10
12.62109984665949
 20
1570.587228818062
 30
0.0
 10
12.83298251597171
 20
1571.409292837478
 30
0.0
 10
13.40865789438612
 20
1572.514622332226
 30
0.0
 10
14.20212283577075
 20
1573.420943548912
 30
0.0
 10
15.03774570382939
 20
1573.974417442161
 30
0.0
 10
15.70410464288125
 20
1574.213265243524
 30
0.0
 10
16.11579280410842
 20
1574.296757427151
 30
0.0
 10
16.41696178006168
 20
1574.327890308279
 30
0.0
 10
16.7135604129835
 20
1574.327557372198
 30
0.0
 10
17.13285176673344
 20
1574.326987918517
 30
0.0
 10
18.78076677639547
 20
1574.327336384791
 30
0.0
 10
20.32759784963127
 20
1574.32703136876
 30
0.0
 10
21.65077798628317
 20
1574.327142360398
 30
0.0
  0
SPLINE
  5
BA
330
1F
100
AcDbEntity
  8
Table_Miura_9590-71_2D
100
AcDbSpline
210
0.0
220
0.0
230
1.0
 70
    12
 71
     3
 72
    10
 73
     6
 74
     0
 42
0.0000000001
 43
0.0000000001
 40
0.0049548029583888
 40
0.0049548029583888
 40
0.0049548029583888
 40
0.0049548029583888
 40
0.7080503722075561
 40
0.7080503722075561
 40
1.411401651021521
 40
1.411401651021521
 40
1.411401651021521
 40
1.411401651021521
 10
11.69755058566898
 20
1569.327142266288
 30
0.0
 41
1.0
 10
11.90698359610542
 20
1569.327136898298
 30
0.0
 41
1.0
 10
12.10738548530298
 20
1569.410860356172
 30
0.0
 41
1.0
 10
12.42277287031538
 20
1569.717405644999
 30
0.0
 41
1.0
 10
12.52672492147758
 20
1569.929390261619
 30
0.0
 41
1.0
 10
12.56031880717455
 20
1570.163251999589
 30
0.0
 41
1.0
  0
SPLINE
  5
BB
330
1F
100
AcDbEntity
  8
Table_Miura_9590-71_2D
100
AcDbSpline
210
0.0
220
0.0
230
1.0
 70
    12
 71
     2
 72
     6
 73
     3
 74
     0
 42
0.0000000001
 43
0.0000000001
 40
-11.69797561871451
 40
-11.69797561871451
 40
-11.69797561871451
 40
0.0
 40
0.0
 40
0.0
 10
-0.0002123606354871
 20
1569.327142260182
 30
0.0
 41
1.0
 10
5.848669112516291
 20
1569.32714223328
 30
0.0
 41
1.0
 10
11.69755058566898
 20
1569.327142266288
 30
0.0
 41
1.0
  0
SPLINE
  5
BC
330
1F
100
AcDbEntity
  8
Table_Miura_9590-71_2D
100
AcDbSpline
210
0.0
220
0.0
230
1.0
 70
    24
 71
     2
 72
     6
 73
     3
 74
     0
 42
0.0000000001
 43
0.0000000001
 40
0.0
 40
0.0
 40
0.0
 40
286.5590223823228
 40
286.5590223823228
 40
286.5590223823228
 10
-25.13000084797841
 20
1201.622223254972
 30
0.0
 10
-25.13000084797841
 20
1344.901734446133
 30
0.0
 10
-25.13000084797841
 20
1488.181245637295
 30
0.0
  0
LINE
  5
BD
330
1F
100
AcDbEntity
  8
Table_Miura_9590-71_2D
100
AcDbLine
 10
25.13000147152798
 20
1201.622223254972
 30
0.0
 11
-25.13000084797841
 21
1201.622223254972
 31
0.0
  0
SPLINE
  5
BE
330
1F
100
AcDbEntity
  8
Table_Miura_9590-71_2D
100
AcDbSpline
210
0.0
220
0.0
230
1.0
 70
    24
 71
     2
 72
     6
 73
     3
 74
     0
 42
0.0000000001
 43
0.0000000001
 40
0.0
 40
0.0
 40
0.0
 40
286.5590223823231
 40
286.5590223823231
 40
286.5590223823231
 10
25.13000147152798
 20
1488.181245637295
 30
0.0
 10
25.13000147152798
 20
1344.901734446133
 30
0.0
 10
25.13000147152798
 20
1201.622223254972
 30
0.0
  0
SPLINE
  5
BF
330
1F
100
AcDbEntity
  8
Table_Miura_9590-71_2D
100
AcDbSpline
210
0.0
220
0.0
230
1.0
 70
     8
 71
     3
 72
    12
 73
     8
 74
     0
 42
0.0000000001
 43
0.0000000001
 40
0.0
 40
0.0
 40
0.0
 40
0.0
 40
0.0709674213477591
 40
0.1335862693837825
 40
0.2813937667596485
 40
0.4525062216997117
 40
0.627356896276153
 40
0.627356896276153
 40
0.627356896276153
 40
0.627356896276153
 10
-25.00001845605311
 20
1201.268669786971
 30
0.0
 10
-25.00012779214467
 20
1201.292288581898
 30
0.0
 10
-24.99914452395751
 20
1201.337144411928
 30
0.0
 10
-24.96723534956527
 20
1201.426924282091
 30
0.0
 10
-24.87928072717568
 20
1201.522376425436
 30
0.0
 10
-24.732417578286
 20
1201.601084656488
 30
0.0
 10
-24.61702595617407
 20
1201.620016880335
 30
0.0
 10
-24.55885293653046
 20
1201.621497499682
 30
0.0
  0
SPLINE
  5
C0
330
1F
100
AcDbEntity
  8
Table_Miura_9590-71_2D
100
AcDbSpline
210
0.0
220
0.0
230
1.0
 70
    24
 71
     2
 72
     6
 73
     3
 74
     0
 42
0.0000000001
 43
0.0000000001
 40
0.0
 40
0.0
 40
0.0
 40
0.3964465280207605
 40
0.3964465280207605
 40
0.3964465280207605
 10
-24.99999168985505
 20
1200.872223259127
 30
0.0
 10
-25.00000507295408
 20
1201.070446523049
 30
0.0
 10
-25.00001845605311
 20
1201.268669786971
 30
0.0
  0
SPLINE
  5
C1
330
1F
100
AcDbEntity
  8
Table_Miura_9590-71_2D
100
AcDbSpline
210
0.0
220
0.0
230
1.0
 70
     8
 71
     3
 72
    17
 73
    13
 74
     0
 42
0.0000000001
 43
0.0000000001
 40
0.0
 40
0.0
 40
0.0
 40
0.0
 40
0.1433371388019954
 40
0.2741217048581911
 40
0.5698915548391688
 40
0.8911637673394632
 40
1.191151497005835
 40
1.428512647803872
 40
1.628463248151064
 40
1.79281401023468
 40
1.87084582755943
 40
1.966221106772802
 40
1.966221106772802
 40
1.966221106772802
 40
1.966221106772802
 10
-23.83922918809458
 20
1199.371864085094
 30
0.0
 10
-23.8803556190951
 20
1199.397478720279
 30
0.0
 10
-23.95751269938955
 20
1199.446482054733
 30
0.0
 10
-24.11165639704541
 20
1199.557656244661
 30
0.0
 10
-24.30244871973537
 20
1199.718449844423
 30
0.0
 10
-24.52043363332905
 20
1199.933018125689
 30
0.0
 10
-24.70789076932579
 20
1200.149710061127
 30
0.0
 10
-24.84985039086769
 20
1200.350708001808
 30
0.0
 10
-24.94381514257748
 20
1200.52861168921
 30
0.0
 10
-24.98705086623158
 20
1200.670444096476
 30
0.0
 10
-24.99963398884302
 20
1200.782629211194
 30
0.0
 10
-25.0000926806606
 20
1200.840406390193
 30
0.0
 10
-24.99999168985505
 20
1200.872223259127
 30
0.0
  0
SPLINE
  5
C2
330
1F
100
AcDbEntity
  8
Table_Miura_9590-71_2D
100
AcDbSpline
210
0.0
220
0.0
230
1.0
 70
     8
 71
     3
 72
    24
 73
    20
 74
     0
 42
0.0000000001
 43
0.0000000001
 40
0.0
 40
0.0
 40
0.0
 40
0.0
 40
0.0020036009973828
 40
0.0022547111946161
 40
0.0025058213907338
 40
0.0056257993892326
 40
0.0112405324588038
 40
0.0196887687594485
 40
0.0391810618505631
 40
0.0782064054519545
 40
0.1883614775428985
 40
0.3719392572588333
 40
0.7758219388728826
 40
1.546888493387028
 40
3.125770128814666
 40
6.302017912357493
 40
12.52633999402473
 40
18.76876323823666
 40
25.12637023077661
 40
25.12637023077661
 40
25.12637023077661
 40
25.12637023077661
 10
0.0002385766783846
 20
1192.534973637505
 30
0.0
 10
-0.000431388261859
 20
1192.534973635093
 30
0.0
 10
-0.0013814655403621
 20
1192.534973662934
 30
0.0
 10
-0.0015540261447313
 20
1192.534973572312
 30
0.0
 10
-0.001751428640091
 20
1192.534973696355
 30
0.0
 10
-0.0056047590933304
 20
1192.534973861923
 30
0.0
 10
-0.0107352989271021
 20
1192.534974699025
 30
0.0
 10
-0.0223819561779237
 20
1192.534978425097
 30
0.0
 10
-0.0441539371731778
 20
1192.534992366129
 30
0.0
 10
-0.1008786728361883
 20
1192.535064839453
 30
0.0
 10
-0.2114962550240307
 20
1192.535392551128
 30
0.0
 10
-0.44418548368958
 20
1192.536843890922
 30
0.0
 10
-0.8969076456560288
 20
1192.542644046896
 30
0.0
 10
-1.814613149635989
 20
1192.566435879907
 30
0.0
 10
-3.654403157882371
 20
1192.662447057964
 30
0.0
 10
-7.296441314317235
 20
1193.044970529661
 30
0.0
 10
-12.40936913035694
 20
1194.130072917413
 30
0.0
 10
-18.32235610084081
 20
1196.274633768184
 30
0.0
 10
-22.04132580201531
 20
1198.248812406023
 30
0.0
 10
-23.83922918809458
 20
1199.371864085094
 30
0.0
  0
SPLINE
  5
C3
330
1F
100
AcDbEntity
  8
Table_Miura_9590-71_2D
100
AcDbSpline
210
0.0
220
0.0
230
1.0
 70
     8
 71
     3
 72
    25
 73
    21
 74
     0
 42
0.0000000001
 43
0.0000000001
 40
0.0
 40
0.0
 40
0.0
 40
0.0
 40
3.199464847565258
 40
6.339105644558495
 40
12.50811986083845
 40
18.76914410145589
 40
21.92709824290088
 40
23.5426726790446
 40
24.35047809908063
 40
24.73600031715062
 40
24.93791509714551
 40
25.02970318784148
 40
25.08478241549296
 40
25.10542804074601
 40
25.11450266261522
 40
25.12044633183926
 40
25.1237624889977
 40
25.12411320300106
 40
25.12426471033862
 40
25.12576885809665
 40
25.12576885809665
 40
25.12576885809665
 40
25.12576885809665
 10
23.83903595549873
 20
1199.371741328047
 30
0.0
 10
22.93409061299099
 20
1198.806342885678
 30
0.0
 10
21.10216963154653
 20
1197.750675724873
 30
0.0
 10
17.35060767958657
 20
1195.925743779431
 30
0.0
 10
12.46235462658387
 20
1194.146255119938
 30
0.0
 10
7.369079324375889
 20
1193.056406286505
 30
0.0
 10
3.709330417430465
 20
1192.666916164754
 30
0.0
 10
1.851280898302321
 20
1192.56754769038
 30
0.0
 10
0.9152639214016745
 20
1192.542990994348
 30
0.0
 10
0.4502290392420036
 20
1192.536896776004
 30
0.0
 10
0.2238244808968375
 20
1192.535456594803
 30
0.0
 10
0.1075669070442018
 20
1192.535079485496
 30
0.0
 10
0.0517292836730121
 20
1192.534999208628
 30
0.0
 10
0.0234633573991232
 20
1192.534978456084
 30
0.0
 10
0.0115754177404597
 20
1192.534975046018
 30
0.0
 10
0.0055053786809367
 20
1192.534973789202
 30
0.0
 10
0.0021275729604895
 20
1192.53497372986
 30
0.0
 10
0.0015005478117018
 20
1192.534973569815
 30
0.0
 10
0.0014900110636518
 20
1192.534973654411
 30
0.0
 10
0.0007269131547218
 20
1192.534973635035
 30
0.0
 10
0.0002385766783846
 20
1192.534973637505
 30
0.0
  0
SPLINE
  5
C4
330
1F
100
AcDbEntity
  8
Table_Miura_9590-71_2D
100
AcDbSpline
210
0.0
220
0.0
230
1.0
 70
    24
 71
     2
 72
     6
 73
     3
 74
     0
 42
0.0000000001
 43
0.0000000001
 40
0.0
 40
0.0
 40
0.0
 40
0.0002289742124082
 40
0.0002289742124082
 40
0.0002289742124082
 10
23.83975727332563
 20
1199.372193691242
 30
0.0
 10
23.83939661441218
 20
1199.371967509644
 30
0.0
 10
23.83903595549873
 20
1199.371741328047
 30
0.0
  0
SPLINE
  5
C5
330
1F
100
AcDbEntity
  8
Table_Miura_9590-71_2D
100
AcDbSpline
210
0.0
220
0.0
230
1.0
 70
     8
 71
     3
 72
    17
 73
    13
 74
     0
 42
0.0000000001
 43
0.0000000001
 40
0.0
 40
0.0
 40
0.0
 40
0.0
 40
0.096206427153708
 40
0.1738289297860724
 40
0.3373064891875309
 40
0.5367070411388807
 40
0.7755987407383814
 40
1.076140845210542
 40
1.39684904123019
 40
1.692620935227463
 40
1.823404523224021
 40
1.966221085738925
 40
1.966221085738925
 40
1.966221085738925
 40
1.966221085738925
 10
24.99999231340462
 20
1200.872223259127
 30
0.0
 10
25.00007599933269
 20
1200.840140633979
 30
0.0
 10
24.99963648657013
 20
1200.782204948609
 30
0.0
 10
24.98693521240239
 20
1200.670198177933
 30
0.0
 10
24.94391938789977
 20
1200.528941473895
 30
0.0
 10
24.85004070244213
 20
1200.350956140663
 30
0.0
 10
24.70778194457398
 20
1200.149533265655
 30
0.0
 10
24.51994455287513
 20
1199.932502540054
 30
0.0
 10
24.3019228918256
 20
1199.717974995524
 30
0.0
 10
24.11124786000619
 20
1199.557334083442
 30
0.0
 10
23.95722399971419
 20
1199.44628881583
 30
0.0
 10
23.88020793376745
 20
1199.397388782628
 30
0.0
 10
23.83975727332563
 20
1199.372193691242
 30
0.0
  0
SPLINE
  5
C6
330
1F
100
AcDbEntity
  8
Table_Miura_9590-71_2D
100
AcDbSpline
210
0.0
220
0.0
230
1.0
 70
    24
 71
     2
 72
     6
 73
     3
 74
     0
 42
0.0000000001
 43
0.0000000001
 40
0.0
 40
0.0
 40
0.0
 40
0.3964465280207605
 40
0.3964465280207605
 40
0.3964465280207605
 10
25.00001907960268
 20
1201.268669786971
 30
0.0
 10
25.00000569650365
 20
1201.070446523049
 30
0.0
 10
24.99999231340462
 20
1200.872223259127
 30
0.0
  0
SPLINE
  5
C7
330
1F
100
AcDbEntity
  8
Table_Miura_9590-71_2D
100
AcDbSpline
210
0.0
220
0.0
230
1.0
 70
     8
 71
     3
 72
    13
 73
     9
 74
     0
 42
0.0000000001
 43
0.0000000001
 40
0.0
 40
0.0
 40
0.0
 40
0.0
 40
0.0902185093720015
 40
0.1761896831588625
 40
0.3455633168783852
 40
0.4948657949572023
 40
0.556563259372795
 40
0.627356624861584
 40
0.627356624861584
 40
0.627356624861584
 40
0.627356624861584
 10
24.55885381686949
 20
1201.621503446278
 30
0.0
 10
24.58893150645326
 20
1201.620446702616
 30
0.0
 10
24.64749837356158
 20
1201.61528319327
 30
0.0
 10
24.75960680516619
 20
1201.586365353379
 30
0.0
 10
24.87975929685217
 20
1201.522134395708
 30
0.0
 10
24.96742215826907
 20
1201.426651752607
 30
0.0
 10
24.99927343375657
 20
1201.33672191253
 30
0.0
 10
25.00003015807579
 20
1201.292231625158
 30
0.0
 10
25.00001907960268
 20
1201.268669786971
 30
0.0
  0
SPLINE
  5
C8
330
1F
100
AcDbEntity
  8
Table_Miura_9590-71_2D
100
AcDbSpline
210
0.0
220
0.0
230
1.0
 70
     8
 71
     3
 72
    12
 73
     8
 74
     0
 42
0.0000000001
 43
0.0000000001
 40
0.0
 40
0.0
 40
0.0
 40
0.0
 40
0.0890023797843848
 40
0.1797960093845599
 40
0.411193526615116
 40
0.6556287843923315
 40
0.8529811660911646
 40
0.8529811660911646
 40
0.8529811660911646
 40
0.8529811660911646
 10
318.0659897584792
 20
1201.268816075069
 30
0.0
 10
318.0466777964884
 20
1201.291543879414
 30
0.0
 10
318.005884119636
 20
1201.335671940688
 30
0.0
 10
317.8972074777221
 20
1201.419924455881
 30
0.0
 10
317.7306862971664
 20
1201.510181639302
 30
0.0
 10
317.5211796488129
 20
1201.591981849361
 30
0.0
 10
317.3756606648822
 20
1201.61983070326
 30
0.0
 10
317.3097707814886
 20
1201.621614527706
 30
0.0
  0
SPLINE
  5
C9
330
1F
100
AcDbEntity
  8
Table_Miura_9590-71_2D
100
AcDbSpline
210
0.0
220
0.0
230
1.0
 70
    24
 71
     2
 72
     6
 73
     3
 74
     0
 42
0.0000000001
 43
0.0000000001
 40
0.0
 40
0.0
 40
0.0
 40
0.5244495011189884
 40
0.5244495011189884
 40
0.5244495011189884
 10
318.4095026644463
 20
1200.872160037524
 30
0.0
 10
318.2377462114628
 20
1201.070488056297
 30
0.0
 10
318.0659897584792
 20
1201.268816075069
 30
0.0
  0
SPLINE
  5
CA
330
1F
100
AcDbEntity
  8
Table_Miura_9590-71_2D
100
AcDbSpline
210
0.0
220
0.0
230
1.0
 70
     8
 71
     3
 72
    16
 73
    12
 74
     0
 42
0.0000000001
 43
0.0000000001
 40
0.0
 40
0.0
 40
0.0
 40
0.0
 40
0.1450445684408275
 40
0.2674563255525638
 40
0.5165020686838145
 40
0.7647651081847263
 40
0.9971024939488223
 40
1.19489142016583
 40
1.37708050099132
 40
1.556352254818322
 40
1.789706299665248
 40
1.789706299665248
 40
1.789706299665248
 40
1.789706299665248
 10
318.04861776915
 20
1199.372161396496
 30
0.0
 10
318.088063076988
 20
1199.400303036044
 30
0.0
 10
318.1602076122417
 20
1199.452762008239
 30
0.0
 10
318.290808885401
 20
1199.565209077959
 30
0.0
 10
318.429198844965
 20
1199.719562408021
 30
0.0
 10
318.5590590771708
 20
1199.926322462848
 30
0.0
 10
318.6411985212089
 20
1200.138370844208
 30
0.0
 10
318.6681831307806
 20
1200.342455652098
 30
0.0
 10
318.63881432978
 20
1200.528776172834
 30
0.0
 10
318.5502871230301
 20
1200.708324441656
 30
0.0
 10
318.4605355202702
 20
1200.813446764142
 30
0.0
 10
318.4095026644463
 20
1200.872160037524
 30
0.0
  0
SPLINE
  5
CB
330
1F
100
AcDbEntity
  8
Table_Miura_9590-71_2D
100
AcDbSpline
210
0.0
220
0.0
230
1.0
 70
     8
 71
     3
 72
    12
 73
     8
 74
     0
 42
0.0000000001
 43
0.0000000001
 40
0.0
 40
0.0
 40
0.0
 40
0.0
 40
2.765242495116512
 40
5.467131183712467
 40
11.12386283924205
 40
16.6939552205985
 40
22.3034199774177
 40
22.3034199774177
 40
22.3034199774177
 40
22.3034199774177
 10
297.1831102336737
 20
1192.536629079247
 30
0.0
 10
298.1048220220073
 20
1192.545418726791
 30
0.0
 10
299.9264057619821
 20
1192.633228224431
 30
0.0
 10
303.6088256392895
 20
1193.088719587405
 30
0.0
 10
308.134354429043
 20
1194.188007288329
 30
0.0
 10
313.3336567822416
 20
1196.343811063434
 30
0.0
 10
316.5280540771946
 20
1198.283888480967
 30
0.0
 10
318.04861776915
 20
1199.372161396496
 30
0.0
  0
SPLINE
  5
CC
330
1F
100
AcDbEntity
  8
Table_Miura_9590-71_2D
100
AcDbSpline
210
0.0
220
0.0
230
1.0
 70
     8
 71
     5
 72
    12
 73
     6
 74
     0
 42
0.0000000001
 43
0.0000000001
 40
-1.0
 40
-1.0
 40
-1.0
 40
-1.0
 40
-1.0
 40
-1.0
 40
0.0
 40
0.0
 40
0.0
 40
0.0
 40
0.0
 40
0.0
 10
296.8384569398631
 20
1192.534973636693
 30
0.0
 10
296.9073883934934
 20
1192.53497975432
 30
0.0
 10
296.9763198324217
 20
1192.535151526209
 30
0.0
 10
297.0452520108047
 20
1192.535480470739
 30
0.0
 10
297.1141819138547
 20
1192.535971763539
 30
0.0
 10
297.1831102336737
 20
1192.536629079247
 30
0.0
  0
SPLINE
  5
CD
330
1F
100
AcDbEntity
  8
Table_Miura_9590-71_2D
100
AcDbSpline
210
0.0
220
0.0
230
1.0
 70
     8
 71
     3
 72
    11
 73
     7
 74
     0
 42
0.0000000001
 43
0.0000000001
 40
0.0
 40
0.0
 40
0.0
 40
0.0
 40
2.849025153143939
 40
5.681848556468799
 40
11.31563454753918
 40
22.64754464670963
 40
22.64754464670963
 40
22.64754464670963
 40
22.64754464670963
 10
275.6286844388032
 20
1199.372083313127
 30
0.0
 10
276.4010126777275
 20
1198.819176284669
 30
0.0
 10
277.9836326676768
 20
1197.775865137158
 30
0.0
 10
281.2853606671097
 20
1195.947010719669
 30
0.0
 10
287.4070022236119
 20
1193.427887192025
 30
0.0
 10
293.0610010935688
 20
1192.534638389614
 30
0.0
 10
296.8384569398631
 20
1192.534973636693
 30
0.0
  0
SPLINE
  5
CE
330
1F
100
AcDbEntity
  8
Table_Miura_9590-71_2D
100
AcDbSpline
210
0.0
220
0.0
230
1.0
 70
     8
 71
     3
 72
    12
 73
     8
 74
     0
 42
0.0000000001
 43
0.0000000001
 40
0.0
 40
0.0
 40
0.0
 40
0.0
 40
0.215147148445352
 40
0.4344126759933203
 40
1.014845999299492
 40
1.738325432821743
 40
2.240259627195612
 40
2.240259627195612
 40
2.240259627195612
 40
2.240259627195612
 10
273.9686630757224
 20
1200.871967290103
 30
0.0
 10
274.0157139333105
 20
1200.817405821932
 30
0.0
 10
274.1115307770806
 20
1200.708777017913
 30
0.0
 10
274.3478628660869
 20
1200.466617743287
 30
0.0
 10
274.7198684238383
 20
1200.120867520172
 30
0.0
 10
275.1736700106712
 20
1199.72536224326
 30
0.0
 10
275.4918819922013
 20
1199.468960717218
 30
0.0
 10
275.6286844388032
 20
1199.372083313127
 30
0.0
  0
SPLINE
  5
CF
330
1F
100
AcDbEntity
  8
Table_Miura_9590-71_2D
100
AcDbSpline
210
0.0
220
0.0
230
1.0
 70
    24
 71
     2
 72
     6
 73
     3
 74
     0
 42
0.0000000001
 43
0.0000000001
 40
0.0
 40
0.0
 40
0.0
 40
0.5244136134753632
 40
0.5244136134753632
 40
0.5244136134753632
 10
273.6251202070398
 20
1201.268656237806
 30
0.0
 10
273.7968916413811
 20
1201.070311763955
 30
0.0
 10
273.9686630757224
 20
1200.871967290103
 30
0.0
  0
SPLINE
  5
D0
330
1F
100
AcDbEntity
  8
Table_Miura_9590-71_2D
100
AcDbSpline
210
0.0
220
0.0
230
1.0
 70
     8
 71
     3
 72
    13
 73
     9
 74
     0
 42
0.0000000001
 43
0.0000000001
 40
0.0
 40
0.0
 40
0.0
 40
0.0
 40
0.0842084935809858
 40
0.1523207872208179
 40
0.275918593398183
 40
0.3976132335562294
 40
0.4611173083935368
 40
0.5436834943217632
 40
0.5436834943217632
 40
0.5436834943217632
 40
0.5436834943217632
 10
273.7940424734034
 20
1201.622128625202
 30
0.0
 10
273.7660711242597
 20
1201.622096725138
 30
0.0
 10
273.714907698286
 20
1201.618766000868
 30
0.0
 10
273.6262767310045
 20
1201.593590957146
 30
0.0
 10
273.5442235144501
 20
1201.518016454505
 30
0.0
 10
273.5362818323292
 20
1201.408046201368
 30
0.0
 10
273.5757172844878
 20
1201.326903973957
 30
0.0
 10
273.6068680254484
 20
1201.289292830159
 30
0.0
 10
273.6251202070398
 20
1201.268656237806
 30
0.0
  0
POLYLINE
  5
D1
330
1F
100
AcDbEntity
  8
Table_Miura_9590-71_2D
100
AcDb2dPolyline
 66
     1
 10
0.0
 20
0.0
 30
0.0
  0
VERTEX
  5
D2
330
D1
100
AcDbEntity
  8
Table_Miura_9590-71_2D
100
AcDbVertex
100
AcDb2dVertex
 10
0.0000003117747838
 20
1568.327143751503
 30
0.0
  0
VERTEX
  5
D3
330
D1
100
AcDbEntity
  8
Table_Miura_9590-71_2D
100
AcDbVertex
100
AcDb2dVertex
 10
-0.000425033045758
 20
1505.776864588906
 30
0.0
  0
SEQEND
  5
D4
330
D1
100
AcDbEntity
  8
Table_Miura_9590-71_2D
  0
SPLINE
  5
D5
330
1F
100
AcDbEntity
  8
Table_Miura_9590-71_2D
100
AcDbSpline
210
0.0
220
0.0
230
1.0
 70
    12
 71
     2
 72
     6
 73
     3
 74
     0
 42
0.0000000001
 43
0.0000000001
 40
0.0
 40
0.0
 40
0.0
 40
0.0456162757198297
 40
0.0456162757198297
 40
0.0456162757198297
 10
-0.775321464825538
 20
1504.802413969188
 30
0.0
 41
1.0
 10
-0.797550102260843
 20
1504.797287593855
 30
0.0
 41
0.9997392900035
 10
-0.8199896032056131
 20
1504.793181398096
 30
0.0
 41
1.0
  0
SPLINE
  5
D6
330
1F
100
AcDbEntity
  8
Table_Miura_9590-71_2D
100
AcDbSpline
210
0.0
220
0.0
230
1.0
 70
     8
 71
     3
 72
    13
 73
     9
 74
     0
 42
0.0000000001
 43
0.0000000001
 40
0.0
 40
0.0
 40
0.0
 40
0.0
 40
1.019225064702818
 40
2.012580360965314
 40
3.947692328443181
 40
4.933986289060289
 40
5.854459583978036
 40
7.77721457745443
 40
7.77721457745443
 40
7.77721457745443
 40
7.77721457745443
 10
-7.422420361133845
 20
1502.866667717969
 30
0.0
 10
-7.126279030012483
 20
1502.700203750416
 30
0.0
 10
-6.531881317252555
 20
1502.388394996791
 30
0.0
 10
-5.331226851916654
 20
1501.848596663195
 30
0.0
 10
-4.094687745448937
 20
1501.423645483406
 30
0.0
 10
-2.847898928927862
 20
1501.127885815903
 30
0.0
 10
-1.588632730843528
 20
1500.91497759843
 30
0.0
 10
-0.6409022308007479
 20
1500.850513994704
 30
0.0
 10
0.0000003117747838
 20
1500.84997804947
 30
0.0
  0
SPLINE
  5
D7
330
1F
100
AcDbEntity
  8
Table_Miura_9590-71_2D
100
AcDbSpline
210
0.0
220
0.0
230
1.0
 70
    12
 71
     2
 72
     6
 73
     3
 74
     0
 42
0.0000000001
 43
0.0000000001
 40
0.0
 40
0.0
 40
0.0
 40
0.5308753252867442
 40
0.5308753252867442
 40
0.5308753252867442
 10
-7.886179102791175
 20
1503.125037032069
 30
0.0
 41
1.0
 10
-7.653744063973144
 20
1502.996849768571
 30
0.0
 41
0.9999907493369194
 10
-7.422420361133845
 20
1502.866667717969
 30
0.0
 41
1.0
  0
SPLINE
  5
D8
330
1F
100
AcDbEntity
  8
Table_Miura_9590-71_2D
100
AcDbSpline
210
0.0
220
0.0
230
1.0
 70
     8
 71
     3
 72
    13
 73
     9
 74
     0
 42
0.0000000001
 43
0.0000000001
 40
0.0
 40
0.0
 40
0.0
 40
0.0
 40
0.9782337425002418
 40
1.922754993476621
 40
2.84322828839396
 40
3.829522249011025
 40
5.764634216489107
 40
7.777214577453913
 40
7.777214577453913
 40
7.777214577453913
 40
7.777214577453913
 10
0.0000003117747838
 20
1500.84997804947
 30
0.0
 10
0.3260856012229851
 20
1500.850130905939
 30
0.0
 10
0.9669617714935157
 20
1500.872811484619
 30
0.0
 10
1.910313667173796
 20
1500.969305911729
 30
0.0
 10
2.847898933217039
 20
1501.127902859868
 30
0.0
 10
4.094684466070248
 20
1501.423650795433
 30
0.0
 10
5.653178666751046
 20
1501.959195401893
 30
0.0
 10
6.837687144806296
 20
1502.53784297544
 30
0.0
 10
7.422420984683413
 20
1502.866667717969
 30
0.0
  0
SPLINE
  5
D9
330
1F
100
AcDbEntity
  8
Table_Miura_9590-71_2D
100
AcDbSpline
210
0.0
220
0.0
230
1.0
 70
    12
 71
     2
 72
     6
 73
     3
 74
     0
 42
0.0000000001
 43
0.0000000001
 40
0.0
 40
0.0
 40
0.0
 40
0.5308753252869439
 40
0.5308753252869439
 40
0.5308753252869439
 10
7.422420984684322
 20
1502.866667717969
 30
0.0
 41
1.0
 10
7.653744687522841
 20
1502.99684976857
 30
0.0
 41
0.9999907493369284
 10
7.886179726341652
 20
1503.125037032069
 30
0.0
 41
1.0
  0
SPLINE
  5
DA
330
1F
100
AcDbEntity
  8
Table_Miura_9590-71_2D
100
AcDbSpline
210
0.0
220
0.0
230
1.0
 70
    12
 71
     2
 72
     6
 73
     3
 74
     0
 42
0.0000000001
 43
0.0000000001
 40
0.0
 40
0.0
 40
0.0
 40
1.53375019001792
 40
1.53375019001792
 40
1.53375019001792
 10
0.0000003117747838
 20
1568.327143751503
 30
0.0
 41
1.0
 10
-0.0000398534440044
 20
1569.290733786069
 30
0.0
 41
0.7201170802944139
 10
-0.9629666716837164
 20
1569.326478702373
 30
0.0
 41
1.0
  0
SPLINE
  5
DB
330
1F
100
AcDbEntity
  8
Table_Miura_9590-71_2D
100
AcDbSpline
210
0.0
220
0.0
230
1.0
 70
    12
 71
     2
 72
     6
 73
     3
 74
     0
 42
0.0000000001
 43
0.0000000001
 40
0.0
 40
0.0
 40
0.0
 40
1.53375001570948
 40
1.53375001570948
 40
1.53375001570948
 10
0.9629671210223023
 20
1569.326478696104
 30
0.0
 41
1.0
 10
0.0000404772078434
 20
1569.290733617773
 30
0.0
 41
0.7201171409990421
 10
0.0000003117747838
 20
1568.327143751503
 30
0.0
 41
1.0
  0
SPLINE
  5
DC
330
1F
100
AcDbEntity
  8
Table_Miura_9590-71_2D
100
AcDbSpline
210
0.0
220
0.0
230
1.0
 70
     8
 71
     3
 72
    13
 73
     9
 74
     0
 42
0.0000000001
 43
0.0000000001
 40
0.0
 40
0.0
 40
0.0
 40
0.0
 40
0.0759172290794612
 40
0.1358047706645862
 40
0.2547108411286943
 40
0.3727728321327626
 40
0.4326874844364469
 40
0.5009095124335416
 40
0.5009095124335416
 40
0.5009095124335416
 40
0.5009095124335416
 10
707.275617953469
 20
1201.268669732472
 30
0.0
 10
707.2935646467522
 20
1201.286461011753
 30
0.0
 10
707.3252853136128
 20
1201.319126097078
 30
0.0
 10
707.3669227187302
 20
1201.394161601973
 30
0.0
 10
707.3704072656146
 20
1201.498344611014
 30
0.0
 10
707.3088138529529
 20
1201.583210175751
 30
0.0
 10
707.2319759486118
 20
1201.616138124714
 30
0.0
 10
707.1894316515
 20
1201.620914721059
 30
0.0
 10
707.166654954377
 20
1201.621730568411
 30
0.0
  0
SPLINE
  5
DD
330
1F
100
AcDbEntity
  8
Table_Miura_9590-71_2D
100
AcDbSpline
210
0.0
220
0.0
230
1.0
 70
    12
 71
     3
 72
     8
 73
     4
 74
     0
 42
0.0000000001
 43
0.0000000001
 40
-0.2809667047186584
 40
-0.2809667047186584
 40
-0.2809667047186584
 40
-0.2809667047186584
 40
0.0
 40
0.0
 40
0.0
 40
0.0
 10
707.2746405997987
 20
1201.268344055338
 30
0.0
 41
1.0
 10
707.2753078896858
 20
1201.268666648621
 30
0.0
 41
1.0
 10
707.275633753653
 20
1201.268669703271
 30
0.0
 41
1.0
 10
707.275617953469
 20
1201.268669732472
 30
0.0
 41
1.0
  0
SPLINE
  5
DE
330
1F
100
AcDbEntity
  8
Table_Miura_9590-71_2D
100
AcDbSpline
210
0.0
220
0.0
230
1.0
 70
    24
 71
     2
 72
     6
 73
     3
 74
     0
 42
0.0000000001
 43
0.0000000001
 40
0.0
 40
0.0
 40
0.0
 40
0.559738903496817
 40
0.559738903496817
 40
0.559738903496817
 10
706.8791709906291
 20
1200.872223204275
 30
0.0
 10
707.0769057952139
 20
1201.070283629806
 30
0.0
 10
707.2746405997987
 20
1201.268344055338
 30
0.0
  0
SPLINE
  5
DF
330
1F
100
AcDbEntity
  8
Table_Miura_9590-71_2D
100
AcDbSpline
210
0.0
220
0.0
230
1.0
 70
    12
 71
     3
 72
     8
 73
     4
 74
     0
 42
0.0000000001
 43
0.0000000001
 40
-0.2806769686640115
 40
-0.2806769686640115
 40
-0.2806769686640115
 40
-0.2806769686640115
 40
0.0
 40
0.0
 40
0.0
 40
0.0
 10
706.878504867821
 20
1200.872222927528
 30
0.0
 41
1.0
 10
706.8789667634592
 20
1200.872223204243
 30
0.0
 41
1.0
 10
706.8791888512687
 20
1200.872223204805
 30
0.0
 41
1.0
 10
706.8791709906291
 20
1200.872223204275
 30
0.0
 41
1.0
  0
SPLINE
  5
E0
330
1F
100
AcDbEntity
  8
Table_Miura_9590-71_2D
100
AcDbSpline
210
0.0
220
0.0
230
1.0
 70
    24
 71
     2
 72
     6
 73
     3
 74
     0
 42
0.0000000001
 43
0.0000000001
 40
0.0
 40
0.0
 40
0.0
 40
0.0000154295494115
 40
0.0000154295494115
 40
0.0000154295494115
 10
706.8788323707604
 20
1200.871884067623
 30
0.0
 10
706.8786686192907
 20
1200.872053497576
 30
0.0
 10
706.878504867821
 20
1200.872222927528
 30
0.0
  0
SPLINE
  5
E1
330
1F
100
AcDbEntity
  8
Table_Miura_9590-71_2D
100
AcDbSpline
210
0.0
220
0.0
230
1.0
 70
     8
 71
     3
 72
    12
 73
     8
 74
     0
 42
0.0000000001
 43
0.0000000001
 40
0.0
 40
0.0
 40
0.0
 40
0.0
 40
0.198582148184335
 40
0.4558823293423835
 40
1.173126657775418
 40
1.79495840075012
 40
2.266661781302044
 40
2.266661781302044
 40
2.266661781302044
 40
2.266661781302044
 10
705.1796581742074
 20
1199.371913731032
 30
0.0
 10
705.2328759589836
 20
1199.412135523334
 30
0.0
 10
705.3523618229337
 20
1199.506047813931
 30
0.0
 10
705.6529827317663
 20
1199.756176045949
 30
0.0
 10
706.0548915630006
 20
1200.104943232467
 30
0.0
 10
706.5045562571486
 20
1200.507663432868
 30
0.0
 10
706.7678786061124
 20
1200.759807968158
 30
0.0
 10
706.8788323707604
 20
1200.871884067623
 30
0.0
  0
SPLINE
  5
E2
330
1F
100
AcDbEntity
  8
Table_Miura_9590-71_2D
100
AcDbSpline
210
0.0
220
0.0
230
1.0
 70
     8
 71
     3
 72
    12
 73
     8
 74
     0
 42
0.0000000001
 43
0.0000000001
 40
0.0
 40
0.0
 40
0.0
 40
0.0
 40
2.73591608993206
 40
5.43493518296994
 40
10.74089733582064
 40
16.11138166064301
 40
21.52862391160747
 40
21.52862391160747
 40
21.52862391160747
 40
21.52862391160747
 10
685.1548704462002
 20
1192.535835962034
 30
0.0
 10
686.066831276321
 20
1192.542332170716
 30
0.0
 10
687.877828907167
 20
1192.630428781543
 30
0.0
 10
691.4311840836463
 20
1193.091654571711
 30
0.0
 10
695.7662777363612
 20
1194.192239009287
 30
0.0
 10
700.7047734435273
 20
1196.331598731379
 30
0.0
 10
703.7421547218946
 20
1198.278258157942
 30
0.0
 10
705.1796581742074
 20
1199.371913731032
 30
0.0
  0
SPLINE
  5
E3
330
1F
100
AcDbEntity
  8
Table_Miura_9590-71_2D
100
AcDbSpline
210
0.0
220
0.0
230
1.0
 70
    12
 71
     2
 72
     6
 73
     3
 74
     0
 42
0.0000000001
 43
0.0000000001
 40
0.0
 40
0.0
 40
0.0
 40
0.5724594400308637
 40
0.5724594400308637
 40
0.5724594400308637
 10
684.5824187302387
 20
1192.536653480605
 30
0.0
 41
1.0
 10
684.8686410519815
 20
1192.533768538904
 30
0.0
 41
0.9999625809148069
 10
685.1548704462002
 20
1192.535835962034
 30
0.0
 41
1.0
  0
SPLINE
  5
E4
330
1F
100
AcDbEntity
  8
Table_Miura_9590-71_2D
100
AcDbSpline
210
0.0
220
0.0
230
1.0
 70
     8
 71
     3
 72
    11
 73
     7
 74
     0
 42
0.0000000001
 43
0.0000000001
 40
0.0
 40
0.0
 40
0.0
 40
0.0
 40
2.743424606184175
 40
5.414828345882175
 40
10.77592486299058
 40
21.43397361190056
 40
21.43397361190056
 40
21.43397361190056
 40
21.43397361190056
 10
664.6522756103714
 20
1199.371914576699
 30
0.0
 10
665.3803749390408
 20
1198.817918427364
 30
0.0
 10
666.861640060195
 20
1197.783463656211
 30
0.0
 10
669.964869241413
 20
1195.96976332238
 30
0.0
 10
675.699608110529
 20
1193.482127603503
 30
0.0
 10
681.0298668000496
 20
1192.572253621208
 30
0.0
 10
684.5824187302387
 20
1192.536653480605
 30
0.0
  0
SPLINE
  5
E5
330
1F
100
AcDbEntity
  8
Table_Miura_9590-71_2D
100
AcDbSpline
210
0.0
220
0.0
230
1.0
 70
     8
 71
     3
 72
    12
 73
     8
 74
     0
 42
0.0000000001
 43
0.0000000001
 40
0.0
 40
0.0
 40
0.0
 40
0.0
 40
0.0980656229116343
 40
0.2035418359053462
 40
0.4140500476026759
 40
0.6218932345208525
 40
0.8516964985803366
 40
0.8516964985803366
 40
0.8516964985803366
 40
0.8516964985803366
 10
664.1597503030998
 20
1200.046712425827
 30
0.0
 10
664.1680756837795
 20
1200.015085186749
 30
0.0
 10
664.1887401921185
 20
1199.950432490954
 30
0.0
 10
664.2435293223552
 20
1199.823476202448
 30
0.0
 10
664.334438247377
 20
1199.673727290087
 30
0.0
 10
664.4765083292314
 20
1199.50981625031
 30
0.0
 10
664.5906652972226
 20
1199.418162263046
 30
0.0
 10
664.6522756103714
 20
1199.371914576699
 30
0.0
  0
SPLINE
  5
E6
330
1F
100
AcDbEntity
  8
Table_Miura_9590-71_2D
100
AcDbSpline
210
0.0
220
0.0
230
1.0
 70
    12
 71
     2
 72
     6
 73
     3
 74
     0
 42
0.0000000001
 43
0.0000000001
 40
0.0
 40
0.0
 40
0.0
 40
0.2017970891503139
 40
0.2017970891503139
 40
0.2017970891503139
 10
664.1316882482097
 20
1200.246042049351
 30
0.0
 41
1.0
 10
664.1334794965144
 20
1200.144654095046
 30
0.0
 41
0.9925431650836243
 10
664.1597503030998
 20
1200.046712425827
 30
0.0
 41
1.0
  0
SPLINE
  5
E7
330
1F
100
AcDbEntity
  8
Table_Miura_9590-71_2D
100
AcDbSpline
210
0.0
220
0.0
230
1.0
 70
    12
 71
     5
 72
    12
 73
     6
 74
     0
 42
0.0000000001
 43
0.0000000001
 40
0.0
 40
0.0
 40
0.0
 40
0.0
 40
0.0
 40
0.0
 40
0.8739897245742342
 40
0.8739897245742342
 40
0.8739897245742342
 40
0.8739897245742342
 40
0.8739897245742342
 40
0.8739897245742342
 10
664.452763872644
 20
1200.872223204814
 30
0.0
 41
1.0
 10
664.3445840223358
 20
1200.76404335447
 30
0.0
 41
1.0
 10
664.2364041720575
 20
1200.655863504135
 30
0.0
 41
1.0
 10
664.1629944438064
 20
1200.529119987919
 30
0.0
 41
1.0
 10
664.1298834105801
 20
1200.38920055
 30
0.0
 41
1.0
 10
664.1316882482097
 20
1200.246042049351
 30
0.0
 41
1.0
  0
SPLINE
  5
E8
330
1F
100
AcDbEntity
  8
Table_Miura_9590-71_2D
100
AcDbSpline
210
0.0
220
0.0
230
1.0
 70
    12
 71
     2
 72
     6
 73
     3
 74
     0
 42
0.0000000001
 43
0.0000000001
 40
-0.5606600998610313
 40
-0.5606600998610313
 40
-0.5606600998610313
 40
0.0
 40
0.0
 40
0.0
 10
664.8492104309862
 20
1201.268669763479
 30
0.0
 41
1.0
 10
664.6509871779856
 20
1201.070446458064
 30
0.0
 41
0.9999999999999913
 10
664.452763872644
 20
1200.872223204814
 30
0.0
 41
1.0
  0
SPLINE
  5
E9
330
1F
100
AcDbEntity
  8
Table_Miura_9590-71_2D
100
AcDbSpline
210
0.0
220
0.0
230
1.0
 70
    12
 71
     5
 72
    12
 73
     6
 74
     0
 42
0.0000000001
 43
0.0000000001
 40
0.0589558208107204
 40
0.0589558208107204
 40
0.0589558208107204
 40
0.0589558208107204
 40
0.0589558208107204
 40
0.0589558208107204
 40
0.9432931329715265
 40
0.9432931329715265
 40
0.9432931329715265
 40
0.9432931329715265
 40
0.9432931329715265
 40
0.9432931329715265
 10
665.6608980202382
 20
1201.62181729302
 30
0.0
 41
1.0
 10
665.5317327589419
 20
1201.618263220012
 30
0.0
 41
1.0
 10
665.3645817198594
 20
1201.589522988377
 30
0.0
 41
1.0
 10
665.0118071308616
 20
1201.431266463347
 30
0.0
 41
1.0
 10
664.9305087809716
 20
1201.349968113414
 30
0.0
 41
1.0
 10
664.8492104309862
 20
1201.268669763479
 30
0.0
 41
1.0
  0
SPLINE
  5
EA
330
1F
100
AcDbEntity
  8
Table_Miura_9590-71_2D
100
AcDbSpline
210
0.0
220
0.0
230
1.0
 70
    24
 71
     2
 72
     6
 73
     3
 74
     0
 42
0.0000000001
 43
0.0000000001
 40
0.0
 40
0.0
 40
0.0
 40
436.03635649731
 40
436.03635649731
 40
436.03635649731
 10
973.3148963493295
 20
1509.946487520227
 30
0.0
 10
819.1527639373016
 20
1355.784355409131
 30
0.0
 10
664.9906315252738
 20
1201.622223298036
 30
0.0
  0
SPLINE
  5
EB
330
1F
100
AcDbEntity
  8
Table_Miura_9590-71_2D
100
AcDbSpline
210
0.0
220
0.0
230
1.0
 70
     8
 71
     3
 72
    14
 73
    10
 74
     0
 42
0.0000000001
 43
0.0000000001
 40
0.0
 40
0.0
 40
0.0
 40
0.0
 40
0.9891480038174153
 40
2.048682505589698
 40
4.284630339927826
 40
5.914186096750435
 40
6.608070935285521
 40
9.47879807401191
 40
12.82201302314979
 40
12.82201302314979
 40
12.82201302314979
 40
12.82201302314979
 10
982.2851279462593
 20
1519.105789401067
 30
0.0
 10
982.0654577872228
 20
1518.859905519138
 30
0.0
 10
981.6068035991993
 20
1518.353946530171
 30
0.0
 10
980.6346467168896
 20
1517.307626247639
 30
0.0
 10
979.4968201461725
 20
1516.124094452644
 30
0.0
 10
978.4261675854596
 20
1515.045412588582
 30
0.0
 10
977.1992581220638
 20
1513.82377720127
 30
0.0
 10
975.5630643277318
 20
1512.203615555076
 30
0.0
 10
974.1027336862699
 20
1510.734651565417
 30
0.0
 10
973.3148963493295
 20
1509.946487520227
 30
0.0
  0
SPLINE
  5
EC
330
1F
100
AcDbEntity
  8
Table_Miura_9590-71_2D
100
AcDbSpline
210
0.0
220
0.0
230
1.0
 70
     8
 71
     5
 72
    12
 73
     6
 74
     0
 42
0.0000000001
 43
0.0000000001
 40
0.0
 40
0.0
 40
0.0
 40
0.0
 40
0.0
 40
0.0
 40
1.0
 40
1.0
 40
1.0
 40
1.0
 40
1.0
 40
1.0
 10
989.6234733299652
 20
1528.718989162012
 30
0.0
 10
988.3053472524425
 20
1526.690901257524
 30
0.0
 10
986.9104216925552
 20
1524.712728053588
 30
0.0
 10
985.4282108649759
 20
1522.784769995987
 30
0.0
 10
983.8966219378663
 20
1520.909586512605
 30
0.0
 10
982.2851279462593
 20
1519.105789401067
 30
0.0
  0
SPLINE
  5
ED
330
1F
100
AcDbEntity
  8
Table_Miura_9590-71_2D
100
AcDbSpline
210
0.0
220
0.0
230
1.0
 70
     8
 71
     3
 72
    13
 73
     9
 74
     0
 42
0.0000000001
 43
0.0000000001
 40
0.0
 40
0.0
 40
0.0
 40
0.0
 40
3.162722799211982
 40
5.963232700855801
 40
11.82659241116913
 40
23.58923876696889
 40
35.36859962543459
 40
47.14230545140192
 40
47.14230545140192
 40
47.14230545140192
 40
47.14230545140192
 10
1002.546348928632
 20
1573.351127911214
 30
0.0
 10
1002.548553162675
 20
1572.296959084836
 30
0.0
 10
1002.539833668197
 20
1570.308829782521
 30
0.0
 10
1002.364722730224
 20
1566.369890296803
 30
0.0
 10
1001.697313106748
 20
1559.589272350458
 30
0.0
 10
999.6638271127249
 20
1549.973579631105
 30
0.0
 10
995.5552337171157
 20
1538.907891681222
 30
0.0
 10
991.7621591851403
 20
1532.009602243982
 30
0.0
 10
989.6234733299652
 20
1528.718989162012
 30
0.0
  0
SPLINE
  5
EE
330
1F
100
AcDbEntity
  8
Table_Miura_9590-71_2D
100
AcDbSpline
210
0.0
220
0.0
230
1.0
 70
    12
 71
     2
 72
     6
 73
     3
 74
     0
 42
0.0000000001
 43
0.0000000001
 40
0.0
 40
0.0
 40
0.0
 40
1.347660071043663
 40
1.347660071043663
 40
1.347660071043663
 10
1003.324064725299
 20
1574.327142305629
 30
0.0
 41
1.0
 10
1002.545551665729
 20
1574.149623330662
 30
0.0
 41
0.781453218492171
 10
1002.546348928632
 20
1573.351127911214
 30
0.0
 41
1.0
  0
SPLINE
  5
EF
330
1F
100
AcDbEntity
  8
Table_Miura_9590-71_2D
100
AcDbSpline
210
0.0
220
0.0
230
1.0
 70
    12
 71
     2
 72
     6
 73
     3
 74
     0
 42
0.0000000001
 43
0.0000000001
 40
0.0
 40
0.0
 40
0.0
 40
0.4549953359630085
 40
0.4549953359630085
 40
0.4549953359630085
 10
1017.63295873787
 20
1504.778628078291
 30
0.0
 41
1.0
 10
1017.864051413712
 20
1504.792457584264
 30
0.0
 41
0.9742292604962514
 10
1018.065551333424
 20
1504.906443822119
 30
0.0
 41
1.0
  0
SPLINE
  5
F0
330
1F
100
AcDbEntity
  8
Table_Miura_9590-71_2D
100
AcDbSpline
210
0.0
220
0.0
230
1.0
 70
     8
 71
     3
 72
    20
 73
    16
 74
     0
 42
0.0000000001
 43
0.0000000001
 40
-431.4835608872114
 40
-431.4835608872114
 40
-431.4835608872114
 40
-431.4835608872114
 40
-25.59720475510172
 40
-25.59720475510172
 40
-25.59720475510172
 40
-23.041181434814
 40
-22.35224480279041
 40
-22.35224480279041
 40
-22.35224480279041
 40
-20.7744918917307
 40
-0.3474546757883483
 40
-0.3474546757883483
 40
-0.3474546757883483
 40
0.9942450456762053
 40
2.82110455926947
 40
2.82110455926947
 40
2.82110455926947
 40
2.82110455926947
 10
707.6291708781828
 20
1201.62222320715
 30
0.0
 10
803.2974950659427
 20
1297.290562286697
 30
0.0
 10
898.9658192537036
 20
1392.958901366244
 30
0.0
 10
994.6341434414626
 20
1488.627240445791
 30
0.0
 10
995.2411651951716
 20
1489.224998774437
 30
0.0
 10
996.0151185810773
 20
1489.980961213518
 30
0.0
 10
996.8085513010901
 20
1490.716089911122
 30
0.0
 10
996.977831850746
 20
1490.871264746256
 30
0.0
 10
997.3652661631404
 20
1491.226415149967
 30
0.0
 10
1002.86127485447
 20
1496.066434888493
 30
0.0
 10
1008.170938231286
 20
1501.697839679372
 30
0.0
 10
1014.52566390532
 20
1504.138812159057
 30
0.0
 10
1014.943085749262
 20
1504.299151925987
 30
0.0
 10
1015.958292984829
 20
1504.600953304719
 30
0.0
 10
1017.025253526038
 20
1504.742260578426
 30
0.0
 10
1017.632958737869
 20
1504.778628078291
 30
0.0
  0
SPLINE
  5
F1
330
1F
100
AcDbEntity
  8
Table_Miura_9590-71_2D
100
AcDbSpline
210
0.0
220
0.0
230
1.0
 70
     8
 71
     3
 72
    11
 73
     7
 74
     0
 42
0.0000000001
 43
0.0000000001
 40
0.0081002585430663
 40
0.0081002585430663
 40
0.0081002585430663
 40
0.0081002585430663
 40
0.76990063300263
 40
0.76990063300263
 40
0.76990063300263
 40
3.675276053828606
 40
3.675276053828606
 40
3.675276053828606
 40
3.675276053828606
 10
1049.311270183313
 20
1569.935171842597
 30
0.0
 10
1049.356791630622
 20
1569.68515386861
 30
0.0
 10
1049.516337981595
 20
1569.327142270656
 30
0.0
 10
1049.770225356989
 20
1569.327142271702
 30
0.0
 10
1050.738683830598
 20
1569.327142275692
 30
0.0
 10
1051.707142304206
 20
1569.327142279682
 30
0.0
 10
1052.675600777815
 20
1569.327142289656
 30
0.0
  0
SPLINE
  5
F2
330
1F
100
AcDbEntity
  8
Table_Miura_9590-71_2D
100
AcDbSpline
210
0.0
220
0.0
230
1.0
 70
    12
 71
     2
 72
     6
 73
     3
 74
     0
 42
0.0000000001
 43
0.0000000001
 40
-0.3761526883931789
 40
-0.3761526883931789
 40
-0.3761526883931789
 40
0.0
 40
0.0
 40
0.0
 10
1049.244434664246
 20
1570.305339043383
 30
0.0
 41
1.0
 10
1049.277580453446
 20
1570.120206337401
 30
0.0
 41
0.9999989203661542
 10
1049.311270183313
 20
1569.935171842597
 30
0.0
 41
1.0
  0
SPLINE
  5
F3
330
1F
100
AcDbEntity
  8
Table_Miura_9590-71_2D
100
AcDbSpline
210
0.0
220
0.0
230
1.0
 70
     8
 71
     3
 72
    15
 73
    11
 74
     0
 42
0.0000000001
 43
0.0000000001
 40
-5.517215510995963
 40
-5.517215510995963
 40
-5.517215510995963
 40
-5.517215510995963
 40
-4.92773864084709
 40
-4.318670834827659
 40
-3.704388331691281
 40
-3.058194976662103
 40
-2.377907408399817
 40
-1.641856638493278
 40
-0.8506135065108558
 40
0.0
 40
0.0
 40
0.0
 40
0.0
 10
1046.024115442098
 20
1574.32706668045
 30
0.0
 10
1046.218971213041
 20
1574.301736837658
 30
0.0
 10
1046.610028982594
 20
1574.210812587174
 30
0.0
 10
1047.161854319009
 20
1573.956762556515
 30
0.0
 10
1047.667411259778
 20
1573.587576834446
 30
0.0
 10
1048.113158873515
 20
1573.115286971369
 30
0.0
 10
1048.497898100698
 20
1572.543102280483
 30
0.0
 10
1048.817881811224
 20
1571.878647036332
 30
0.0
 10
1049.072655162518
 20
1571.126777719591
 30
0.0
 10
1049.194468719022
 20
1570.584419157913
 30
0.0
 10
1049.244434664246
 20
1570.305339043383
 30
0.0
  0
SPLINE
  5
F4
330
1F
100
AcDbEntity
  8
Table_Miura_9590-71_2D
100
AcDbSpline
210
0.0
220
0.0
230
1.0
 70
    12
 71
     2
 72
     6
 73
     3
 74
     0
 42
0.0000000001
 43
0.0000000001
 40
-5.848452852216105
 40
-5.848452852216105
 40
-5.848452852216105
 40
0.0
 40
0.0
 40
0.0
 10
1040.175662591109
 20
1574.327142305905
 30
0.0
 41
1.0
 10
1043.099889017644
 20
1574.327184964795
 30
0.0
 41
0.9999999996213539
 10
1046.024115442098
 20
1574.32706668045
 30
0.0
 41
1.0
  0
SPLINE
  5
F5
330
1F
100
AcDbEntity
  8
Table_Miura_9590-71_2D
100
AcDbSpline
210
0.0
220
0.0
230
1.0
 70
    12
 71
     2
 72
     6
 73
     3
 74
     0
 42
0.0000000001
 43
0.0000000001
 40
0.0
 40
0.0
 40
0.0
 40
7.460028192515836
 40
7.460028192515836
 40
7.460028192515836
 10
1032.715634404885
 20
1574.327346313341
 30
0.0
 41
1.0
 10
1036.445648492583
 20
1574.327046333047
 30
0.0
 41
0.9999999985914357
 10
1040.175662591109
 20
1574.327142305905
 30
0.0
 41
1.0
  0
SPLINE
  5
F6
330
1F
100
AcDbEntity
  8
Table_Miura_9590-71_2D
100
AcDbSpline
210
0.0
220
0.0
230
1.0
 70
    12
 71
     2
 72
     6
 73
     3
 74
     0
 42
0.0000000001
 43
0.0000000001
 40
0.0
 40
0.0
 40
0.0
 40
0.0159951658560524
 40
0.0159951658560524
 40
0.0159951658560524
 10
1032.699639527655
 20
1574.327250290718
 30
0.0
 41
1.0
 10
1032.707636947668
 20
1574.327301400596
 30
0.0
 41
0.999999924943241
 10
1032.715634404885
 20
1574.327346313341
 30
0.0
 41
1.0
  0
SPLINE
  5
F7
330
1F
100
AcDbEntity
  8
Table_Miura_9590-71_2D
100
AcDbSpline
210
0.0
220
0.0
230
1.0
 70
    12
 71
     3
 72
    54
 73
    50
 74
     0
 42
0.0000000001
 43
0.0000000001
 40
-36.3735092767428
 40
-36.3735092767428
 40
-36.3735092767428
 40
-36.3735092767428
 40
-35.65104266691848
 40
-35.51144398999158
 40
-35.26611209216914
 40
-35.10822082106448
 40
-35.01354362312178
 40
-34.93913335904487
 40
-34.75994055350136
 40
-34.55514104781032
 40
-34.31738447665442
 40
-34.04971475097287
 40
-33.65792912305069
 40
-33.23516828083971
 40
-32.29041859629451
 40
-31.25837170456729
 40
-30.19949178401347
 40
-30.19949178401347
 40
-30.19949178401347
 40
-29.4960952416352
 40
-29.4960952416352
 40
-28.79304492415562
 40
-28.79304492415562
 40
-28.79304492415562
 40
-20.11557317593713
 40
-20.11557317593713
 40
-20.11557317593713
 40
-8.53272600516803
 40
-8.53272600516803
 40
-8.53272600516803
 40
-8.268823246790324
 40
-8.268823246790324
 40
-8.268823246790324
 40
-7.121775403209211
 40
-7.121775403209211
 40
-7.121775403209211
 40
-5.332336009370444
 40
-3.594248314605104
 40
-2.749108168344543
 40
-1.884922955709098
 40
-1.047676823306014
 40
-0.6247475337379003
 40
-0.1840573543565883
 40
-0.1840573543565883
 40
-0.1840573543565883
 40
-0.0163079898344346
 40
-0.0163079898344346
 40
-0.0163079898344346
 40
0.0
 40
0.0
 40
0.0
 40
0.0
 10
1002.676059932826
 20
1574.327142305905
 30
0.0
 41
0.999999524845157
 10
1002.917093996668
 20
1574.327147947557
 30
0.0
 41
0.999999524845157
 10
1003.204449087203
 20
1574.327131672181
 30
0.0
 41
0.999999524845157
 10
1003.57357039872
 20
1574.327251333219
 30
0.0
 41
0.999999524845157
 10
1003.754576317553
 20
1574.326474366493
 30
0.0
 41
0.999999524845157
 10
1003.920403388749
 20
1574.328390565811
 30
0.0
 41
0.999999524845157
 10
1004.029639708587
 20
1574.325582653969
 30
0.0
 41
0.999999524845157
 10
1004.143660446838
 20
1574.302200171722
 30
0.0
 41
0.999999524845157
 10
1004.286270527641
 20
1574.244788801315
 30
0.0
 41
0.999999524845157
 10
1004.460064773052
 20
1574.13046080857
 30
0.0
 41
0.999999524845157
 10
1004.636419581636
 20
1573.971771535569
 30
0.0
 41
0.999999524845157
 10
1004.833333722138
 20
1573.746024103541
 30
0.0
 41
0.999999524845157
 10
1005.038756488733
 20
1573.44888591658
 30
0.0
 41
0.999999524845157
 10
1005.32192144647
 20
1572.934437263092
 30
0.0
 41
0.999999524845157
 10
1005.617899429677
 20
1572.189186830084
 30
0.0
 41
0.999999524845157
 10
1005.867394071508
 20
1571.206629930132
 30
0.0
 41
0.999999524845157
 10
1005.961510840474
 20
1570.51503887364
 30
0.0
 41
0.999999524845157
 10
1005.990481361909
 20
1570.163251945101
 30
0.0
 41
0.999999524845157
 10
1006.009821137574
 20
1569.929378484682
 30
0.0
 41
0.999999524845157
 10
1006.069576589938
 20
1569.717382363893
 30
0.0
 41
0.999999524845157
 10
1006.253951552366
 20
1569.410854984941
 30
0.0
 41
0.999999524845157
 10
1006.372384207152
 20
1569.327136952638
 30
0.0
 41
0.999999524845157
 10
1006.498314502358
 20
1569.327142299741
 30
0.0
 41
0.999999524845157
 10
1009.390805085098
 20
1569.327142317703
 30
0.0
 41
0.999999524845157
 10
1012.283295667838
 20
1569.327142323036
 30
0.0
 41
0.999999524845157
 10
1015.175786250577
 20
1569.327142315742
 30
0.0
 41
0.999999524845157
 10
1019.036735307499
 20
1569.327142301062
 30
0.0
 41
0.999999524845157
 10
1022.897684364423
 20
1569.327142286382
 30
0.0
 41
0.999999524845157
 10
1026.758633421345
 20
1569.327142271702
 30
0.0
 41
0.999999524845157
 10
1026.846855440943
 20
1569.327126639751
 30
0.0
 41
0.9942088042594844
 10
1026.934268404655
 20
1569.338879819766
 30
0.0
 41
0.9942086996797163
 10
1027.01935378631
 20
1569.362197640822
 30
0.0
 41
0.9999992111058522
 10
1027.409770866326
 20
1569.469601993147
 30
0.0
 41
0.8933366331508513
 10
1027.679637273748
 20
1569.771624054227
 30
0.0
 41
0.8933368961155672
 10
1027.742598950621
 20
1570.171620077364
 30
0.0
 41
1.0
 10
1027.835481061235
 20
1570.760638223032
 30
0.0
 41
1.0
 10
1028.212284121421
 20
1571.89294444316
 30
0.0
 41
1.0
 10
1029.133431212227
 20
1573.052682137492
 30
0.0
 41
1.0
 10
1030.070839801678
 20
1573.726501016585
 30
0.0
 41
1.0
 10
1030.843196048314
 20
1574.08727754833
 30
0.0
 41
1.0
 10
1031.532436833248
 20
1574.262763137961
 30
0.0
 41
1.0
 10
1032.096536583569
 20
1574.325709368451
 30
0.0
 41
1.0
 10
1032.384731861507
 20
1574.328152469543
 30
0.0
 41
1.0
 10
1032.531576807432
 20
1574.327679393314
 30
0.0
 41
1.0
 10
1032.587493261236
 20
1574.327680053936
 30
0.0
 41
0.999999999998273
 10
1032.643409722509
 20
1574.327641937034
 30
0.0
 41
0.999999999998273
 10
1032.699326191251
 20
1574.327565042606
 30
0.0
 41
1.0
 10
1032.704762196616
 20
1574.327477598257
 30
0.0
 41
0.9999999998057724
 10
1032.694203642049
 20
1574.327215551084
 30
0.0
 41
0.9999999998057724
 10
1032.699639527655
 20
1574.327250290718
 30
0.0
 41
1.0
  0
SPLINE
  5
F8
330
1F
100
AcDbEntity
  8
Table_Miura_9590-71_2D
100
AcDbSpline
210
0.0
220
0.0
230
1.0
 70
     8
 71
     3
 72
    12
 73
     8
 74
     0
 42
0.0000000001
 43
0.0000000001
 40
0.0
 40
0.0
 40
0.0
 40
0.0
 40
0.0783339057735422
 40
0.1543752911000592
 40
0.3458434999895036
 40
0.5566067183729958
 40
0.745730808072604
 40
0.745730808072604
 40
0.745730808072604
 40
0.745730808072604
 10
1222.591642920017
 20
1201.268694944041
 30
0.0
 10
1222.580208687323
 20
1201.292136627613
 30
0.0
 10
1222.555588797286
 20
1201.337619738638
 30
0.0
 10
1222.478651156757
 20
1201.424463516097
 30
0.0
 10
1222.346699811362
 20
1201.515832673996
 30
0.0
 10
1222.165656324106
 20
1201.596093395849
 30
0.0
 10
1222.033282960624
 20
1201.619976143724
 30
0.0
 10
1221.970230303077
 20
1201.621547050841
 30
0.0
  0
SPLINE
  5
F9
330
1F
100
AcDbEntity
  8
Table_Miura_9590-71_2D
100
AcDbSpline
210
0.0
220
0.0
230
1.0
 70
    24
 71
     2
 72
     6
 73
     3
 74
     0
 42
0.0000000001
 43
0.0000000001
 40
0.0
 40
0.0
 40
0.0
 40
0.4432407273142656
 40
0.4432407273142656
 40
0.4432407273142656
 10
1222.789883241499
 20
1200.872215858347
 30
0.0
 10
1222.690763080758
 20
1201.070455401194
 30
0.0
 10
1222.591642920017
 20
1201.268694944041
 30
0.0
  0
SPLINE
  5
FA
330
1F
100
AcDbEntity
  8
Table_Miura_9590-71_2D
100
AcDbSpline
210
0.0
220
0.0
230
1.0
 70
     8
 71
     3
 72
    16
 73
    12
 74
     0
 42
0.0000000001
 43
0.0000000001
 40
0.0
 40
0.0
 40
0.0
 40
0.0
 40
0.1493864394124331
 40
0.2793559016564561
 40
0.5550513490148504
 40
0.8392020165335362
 40
1.095708427849608
 40
1.300439052038603
 40
1.480820944991987
 40
1.644774875639234
 40
1.839449949945527
 40
1.839449949945527
 40
1.839449949945527
 40
1.839449949945527
 10
1222.050419541595
 20
1199.372224490199
 30
0.0
 10
1222.092220665347
 20
1199.399298845943
 30
0.0
 10
1222.169940708426
 20
1199.45066465528
 30
0.0
 10
1222.316759181309
 20
1199.563466367233
 30
0.0
 10
1222.484183831395
 20
1199.721760977473
 30
0.0
 10
1222.657812472307
 20
1199.931951511766
 30
0.0
 10
1222.788861340005
 20
1200.143952431871
 30
0.0
 10
1222.868816298495
 20
1200.343291594255
 30
0.0
 10
1222.897385555716
 20
1200.525746716594
 30
0.0
 10
1222.871471352913
 20
1200.705725244826
 30
0.0
 10
1222.819039920423
 20
1200.814442786287
 30
0.0
 10
1222.789883241499
 20
1200.872215858347
 30
0.0
  0
SPLINE
  5
FB
330
1F
100
AcDbEntity
  8
Table_Miura_9590-71_2D
100
AcDbSpline
210
0.0
220
0.0
230
1.0
 70
     8
 71
     3
 72
    12
 73
     8
 74
     0
 42
0.0000000001
 43
0.0000000001
 40
0.0
 40
0.0
 40
0.0
 40
0.0
 40
3.067510030199397
 40
6.111020822346612
 40
12.08884398209748
 40
18.2299956540746
 40
24.32566676622235
 40
24.32566676622235
 40
24.32566676622235
 40
24.32566676622235
 10
1199.055610033622
 20
1192.534973582298
 30
0.0
 10
1200.078120179732
 20
1192.534909320649
 30
0.0
 10
1202.115091826326
 20
1192.610098913672
 30
0.0
 10
1206.123298473818
 20
1193.049492212484
 30
0.0
 10
1211.072086340586
 20
1194.137655989448
 30
0.0
 10
1216.768233161687
 20
1196.285618073905
 30
0.0
 10
1220.346833852109
 20
1198.26483538107
 30
0.0
 10
1222.050419541595
 20
1199.372224490199
 30
0.0
  0
SPLINE
  5
FC
330
1F
100
AcDbEntity
  8
Table_Miura_9590-71_2D
100
AcDbSpline
210
0.0
220
0.0
230
1.0
 70
     8
 71
     3
 72
    11
 73
     7
 74
     0
 42
0.0000000001
 43
0.0000000001
 40
0.0
 40
0.0
 40
0.0
 40
0.0
 40
3.125176035128539
 40
6.095599655767289
 40
12.14563159808566
 40
24.32538406836998
 40
24.32538406836998
 40
24.32538406836998
 40
24.32538406836998
 10
1176.060976515481
 20
1199.372175630393
 30
0.0
 10
1176.934418834445
 20
1198.804378785971
 30
0.0
 10
1178.678596348733
 20
1197.759090500127
 30
0.0
 10
1182.293419465112
 20
1195.931024458617
 30
0.0
 10
1188.919948607794
 20
1193.422936761178
 30
0.0
 10
1194.995564622533
 20
1192.534615244255
 30
0.0
 10
1199.055610033622
 20
1192.534973582298
 30
0.0
  0
SPLINE
  5
FD
330
1F
100
AcDbEntity
  8
Table_Miura_9590-71_2D
100
AcDbSpline
210
0.0
220
0.0
230
1.0
 70
     8
 71
     3
 72
    14
 73
    10
 74
     0
 42
0.0000000001
 43
0.0000000001
 40
0.0
 40
0.0
 40
0.0
 40
0.0
 40
0.1878442759905428
 40
0.377592525096296
 40
0.6122387701456025
 40
0.8889786116689307
 40
1.581028401171428
 40
1.879577165562933
 40
2.132521340345825
 40
2.132521340345825
 40
2.132521340345825
 40
2.132521340345825
 10
1174.571385899717
 20
1200.872142098363
 30
0.0
 10
1174.59898407822
 20
1200.815892661549
 30
0.0
 10
1174.658234924456
 20
1200.70450244128
 30
0.0
 10
1174.77660057201
 20
1200.537927225226
 30
0.0
 10
1174.927329215843
 20
1200.359133115434
 30
0.0
 10
1175.20465071147
 20
1200.069106886938
 30
0.0
 10
1175.516544683913
 20
1199.783609308441
 30
0.0
 10
1175.838841208397
 20
1199.522770727433
 30
0.0
 10
1175.989845051952
 20
1199.417625882377
 30
0.0
 10
1176.060976515481
 20
1199.372175630393
 30
0.0
  0
SPLINE
  5
FE
330
1F
100
AcDbEntity
  8
Table_Miura_9590-71_2D
100
AcDbSpline
210
0.0
220
0.0
230
1.0
 70
    24
 71
     2
 72
     6
 73
     3
 74
     0
 42
0.0000000001
 43
0.0000000001
 40
0.0
 40
0.0
 40
0.0
 40
0.443128027777323
 40
0.443128027777323
 40
0.443128027777323
 10
1174.373148466086
 20
1201.268619346929
 30
0.0
 10
1174.472267182901
 20
1201.070380722646
 30
0.0
 10
1174.571385899717
 20
1200.872142098363
 30
0.0
  0
SPLINE
  5
FF
330
1F
100
AcDbEntity
  8
Table_Miura_9590-71_2D
100
AcDbSpline
210
0.0
220
0.0
230
1.0
 70
     8
 71
     3
 72
    13
 73
     9
 74
     0
 42
0.0000000001
 43
0.0000000001
 40
0.0
 40
0.0
 40
0.0
 40
0.0
 40
0.0876034865927682
 40
0.1633834879133184
 40
0.3033602437049218
 40
0.4266564189877514
 40
0.487622525187018
 40
0.563040151376382
 40
0.563040151376382
 40
0.563040151376382
 40
0.563040151376382
 10
1174.647326237846
 20
1201.621750460325
 30
0.0
 10
1174.618282407286
 20
1201.621015957916
 30
0.0
 10
1174.563386773609
 20
1201.616902430551
 30
0.0
 10
1174.465954130157
 20
1201.590327246503
 30
0.0
 10
1174.368429032404
 20
1201.525086251792
 30
0.0
 10
1174.326653968285
 20
1201.419097931124
 30
0.0
 10
1174.342071884264
 20
1201.331958219495
 30
0.0
 10
1174.361705891786
 20
1201.291229947157
 30
0.0
 10
1174.373148466086
 20
1201.268619346929
 30
0.0
  0
SPLINE
  5
100
330
1F
100
AcDbEntity
  8
Table_Miura_9590-71_2D
100
AcDbSpline
210
0.0
220
0.0
230
1.0
 70
    12
 71
     3
 72
    26
 73
    22
 74
     0
 42
0.0000000001
 43
0.0000000001
 40
-45.87114236150764
 40
-45.87114236150764
 40
-45.87114236150764
 40
-45.87114236150764
 40
-43.74827143190391
 40
-41.95073232195075
 40
-37.96290779321185
 40
-29.2091905711187
 40
-19.77032179938261
 40
-14.83888187793954
 40
-9.83637658103571
 40
-9.83637658103571
 40
-9.83637658103571
 40
-9.16749384238369
 40
-7.554830330056149
 40
-5.942166817728606
 40
-4.329503305401064
 40
-4.329503305401064
 40
-4.329503305401064
 40
0.0
 40
0.0
 40
0.0
 40
1.489429492300063
 40
1.489429492300063
 40
1.489429492300063
 40
1.489429492300063
 10
1062.146098955645
 20
1523.631836973254
 30
0.0
 41
1.0
 10
1061.870654567341
 20
1524.283596332329
 30
0.0
 41
1.0
 10
1061.338644954537
 20
1525.540290436412
 30
0.0
 41
1.0
 10
1060.378387563827
 20
1527.995318742651
 30
0.0
 41
1.0
 10
1058.778042312848
 20
1532.57152833957
 30
0.0
 41
1.0
 10
1056.789464330614
 20
1539.698217242323
 30
0.0
 41
1.0
 10
1055.248007611966
 20
1547.254760939798
 30
0.0
 41
1.0
 10
1054.252081607579
 20
1553.635734292445
 30
0.0
 41
1.0
 10
1053.841313357428
 20
1556.921931421884
 30
0.0
 41
1.0
 10
1053.658472515812
 20
1558.579348109659
 30
0.0
 41
1.0
 10
1053.634079755465
 20
1558.800463740625
 30
0.0
 41
1.0
 10
1053.552022541776
 20
1559.554761220573
 30
0.0
 41
1.0
 10
1053.41909398927
 20
1560.842080111569
 30
0.0
 41
1.0
 10
1053.267160481366
 20
1562.443832926535
 30
0.0
 41
1.0
 10
1053.177208686794
 20
1563.51200097303
 30
0.0
 41
1.0
 10
1053.135473044525
 20
1564.046424231237
 30
0.0
 41
1.0
 10
1053.023105034088
 20
1565.485292186581
 30
0.0
 41
0.999887491868595
 10
1052.937189519328
 20
1566.925981635078
 30
0.0
 41
0.999887491868595
 10
1052.877755498824
 20
1568.368006308893
 30
0.0
 41
1.0
 10
1052.855158582214
 20
1568.916266565004
 30
0.0
 41
0.8233637531700498
 10
1052.467099805253
 20
1569.304223153677
 30
0.0
 41
0.8233637531700498
 10
1051.919214905676
 20
1569.326294487643
 30
0.0
 41
1.0
  0
SPLINE
  5
101
330
1F
100
AcDbEntity
  8
Table_Miura_9590-71_2D
100
AcDbSpline
210
0.0
220
0.0
230
1.0
 70
     8
 71
     3
 72
    15
 73
    11
 74
     0
 42
0.0000000001
 43
0.0000000001
 40
0.0
 40
0.0
 40
0.0
 40
0.0
 40
2.804057442577903
 40
5.813535061115351
 40
7.520094063378131
 40
12.01795169840552
 40
16.91927281030366
 40
18.14949344777262
 40
19.34253087904432
 40
21.65307934478401
 40
21.65307934478401
 40
21.65307934478401
 40
21.65307934478401
 10
1071.415484349347
 20
1503.976812283247
 30
0.0
 10
1070.997482503026
 20
1504.812815976412
 30
0.0
 10
1070.096154083934
 20
1506.621896052077
 30
0.0
 10
1068.970676064278
 20
1508.861709750303
 30
0.0
 10
1067.603196510398
 20
1511.611810566731
 30
0.0
 10
1065.994231318334
 20
1514.945911003178
 30
0.0
 10
1064.514230441382
 20
1518.165373973529
 30
0.0
 10
1063.527927463757
 20
1520.398820511959
 30
0.0
 10
1062.895693982486
 20
1521.844594371431
 30
0.0
 10
1062.445913178391
 20
1522.922413459994
 30
0.0
 10
1062.146098955645
 20
1523.631836973254
 30
0.0
  0
SPLINE
  5
102
330
1F
100
AcDbEntity
  8
Table_Miura_9590-71_2D
100
AcDbSpline
210
0.0
220
0.0
230
1.0
 70
    24
 71
     2
 72
     6
 73
     3
 74
     0
 42
0.0000000001
 43
0.0000000001
 40
0.0
 40
0.0
 40
0.0
 40
338.0425444558308
 40
338.0425444558308
 40
338.0425444558308
 10
1222.59270601175
 20
1201.622368769333
 30
0.0
 10
1147.004095180549
 20
1352.79959052629
 30
0.0
 10
1071.415484349347
 20
1503.976812283247
 30
0.0
  0
LINE
  5
103
330
1F
100
AcDbEntity
  8
Table_Miura_9590-71_2D
100
AcDbLine
 10
1174.124781654238
 20
1201.621905162493
 30
0.0
 11
1222.59270601175
 21
1201.622368769333
 31
0.0
  0
SPLINE
  5
104
330
1F
100
AcDbEntity
  8
Table_Miura_9590-71_2D
100
AcDbSpline
210
0.0
220
0.0
230
1.0
 70
    24
 71
     2
 72
     6
 73
     3
 74
     0
 42
0.0000000001
 43
0.0000000001
 40
0.0
 40
0.0
 40
0.0
 40
327.5547231258826
 40
327.5547231258826
 40
327.5547231258826
 10
1027.637856275414
 20
1494.595756103379
 30
0.0
 10
1100.881318964826
 20
1348.108830632936
 30
0.0
 10
1174.124781654238
 20
1201.621905162493
 30
0.0
  0
SPLINE
  5
105
330
1F
100
AcDbEntity
  8
Table_Miura_9590-71_2D
100
AcDbSpline
210
0.0
220
0.0
230
1.0
 70
     8
 71
     3
 72
    46
 73
    42
 74
     0
 42
0.0000000001
 43
0.0000000001
 40
0.0
 40
0.0
 40
0.0
 40
0.0
 40
4.445528572919531
 40
9.136184748431083
 40
13.56629843505467
 40
20.52288534708523
 40
22.80023416032957
 40
26.47397545349463
 40
30.12593374789432
 40
33.12390876023884
 40
33.12390876023884
 40
33.12390876023884
 40
33.44213680694137
 40
33.79291129403629
 40
34.65617602833069
 40
35.95951821029371
 40
35.95951821029371
 40
35.95951821029371
 40
37.26413056451781
 40
38.4014712048069
 40
40.57038699906815
 40
42.7593198436251
 40
44.84110739718989
 40
45.77561526079327
 40
46.6545373728493
 40
47.46896338621529
 40
48.21895529454341
 40
48.90499283523491
 40
49.56381445895246
 40
50.22094840567009
 40
51.02557524063457
 40
51.02557524063457
 40
51.02557524063457
 40
56.82679662646953
 40
56.82679662646953
 40
56.82679662646953
 40
57.82809886771776
 40
58.78296253335561
 40
60.89975999567615
 40
62.90994723231162
 40
65.188593675824
 40
65.188593675824
 40
65.188593675824
 40
65.188593675824
 10
1014.695303830991
 20
1552.78834290317
 30
0.0
 10
1014.595750567567
 20
1551.309848783013
 30
0.0
 10
1014.375999202066
 20
1548.272355928717
 30
0.0
 10
1014.009099545637
 20
1543.765129521324
 30
0.0
 10
1013.538147294015
 20
1538.426721968987
 30
0.0
 10
1013.11400750517
 20
1533.89182275124
 30
0.0
 10
1012.724319426217
 20
1529.606942731766
 30
0.0
 10
1012.448285642564
 20
1526.41783683388
 30
0.0
 10
1012.190734016588
 20
1522.986149204345
 30
0.0
 10
1012.069023028082
 20
1520.769366997836
 30
0.0
 10
1012.030786330673
 20
1519.770760603268
 30
0.0
 10
1012.026727682645
 20
1519.664763167609
 30
0.0
 10
1012.018644042611
 20
1519.441905656116
 30
0.0
 10
1012.003729902213
 20
1518.931368616391
 30
0.0
 10
1011.982564630343
 20
1518.092500721857
 30
0.0
 10
1011.973962422776
 20
1517.370320156901
 30
0.0
 10
1011.97400496023
 20
1516.935865791731
 30
0.0
 10
1011.973616641164
 20
1516.501029170396
 30
0.0
 10
1011.984058451594
 20
1515.686851739916
 30
0.0
 10
1012.081666752496
 20
1514.15251515655
 30
0.0
 10
1012.361931350509
 20
1512.338645068912
 30
0.0
 10
1012.961975463528
 20
1510.272939503368
 30
0.0
 10
1013.666972255377
 20
1508.682533037561
 30
0.0
 10
1014.334112967014
 20
1507.566921768497
 30
0.0
 10
1014.850313075431
 20
1506.858137214815
 30
0.0
 10
1015.396609356812
 20
1506.252251069087
 30
0.0
 10
1015.965120077126
 20
1505.760305804308
 30
0.0
 10
1016.553784444231
 20
1505.381204140484
 30
0.0
 10
1017.165589506261
 20
1505.109421819086
 30
0.0
 10
1017.850280412338
 20
1504.926106605661
 30
0.0
 10
1018.334926028584
 20
1504.867326415006
 30
0.0
 10
1018.601351857502
 20
1504.837930646743
 30
0.0
 10
1020.524052343348
 20
1504.623934373953
 30
0.0
 10
1022.734304009025
 20
1503.726290798765
 30
0.0
 10
1023.684474938409
 20
1502.042214455202
 30
0.0
 10
1023.848130205732
 20
1501.751324271808
 30
0.0
 10
1024.167058834175
 20
1501.182583296527
 30
0.0
 10
1024.821716788498
 20
1499.993180445794
 30
0.0
 10
1025.623890920371
 20
1498.501177936364
 30
0.0
 10
1026.615916310882
 20
1496.610374244674
 30
0.0
 10
1027.298178810403
 20
1495.275111033826
 30
0.0
 10
1027.637856275414
 20
1494.595756103379
 30
0.0
  0
SPLINE
  5
106
330
1F
100
AcDbEntity
  8
Table_Miura_9590-71_2D
100
AcDbSpline
210
0.0
220
0.0
230
1.0
 70
     8
 71
     3
 72
    13
 73
     9
 74
     0
 42
0.0000000001
 43
0.0000000001
 40
0.0
 40
0.0
 40
0.0
 40
0.0
 40
1.195776873000196
 40
2.341423735031693
 40
4.878196780698156
 40
8.059055609734553
 40
9.89647813407859
 40
11.23169972175378
 40
11.23169972175378
 40
11.23169972175378
 40
11.23169972175378
 10
1015.310947839772
 20
1564.007896917562
 30
0.0
 10
1015.295403767771
 20
1563.609607711428
 30
0.0
 10
1015.26347585588
 20
1562.829785206292
 30
0.0
 10
1015.189733461763
 20
1561.20538733502
 30
0.0
 10
1015.071110806841
 20
1558.920688674665
 30
0.0
 10
1014.923551834527
 20
1556.406654091275
 30
0.0
 10
1014.793110140288
 20
1554.292841227723
 30
0.0
 10
1014.72520485844
 20
1553.232411653384
 30
0.0
 10
1014.69530383099
 20
1552.788342903169
 30
0.0
  0
SPLINE
  5
107
330
1F
100
AcDbEntity
  8
Table_Miura_9590-71_2D
100
AcDbSpline
210
0.0
220
0.0
230
1.0
 70
    12
 71
     2
 72
     6
 73
     3
 74
     0
 42
0.0000000001
 43
0.0000000001
 40
0.0
 40
0.0
 40
0.0
 40
4.338894157400504
 40
4.338894157400504
 40
4.338894157400504
 10
1015.440133080256
 20
1568.347439386284
 30
0.0
 41
1.0
 10
1015.395553044133
 20
1566.175754842892
 30
0.0
 41
0.999957710116485
 10
1015.310947839772
 20
1564.007896917562
 30
0.0
 41
1.0
  0
SPLINE
  5
108
330
1F
100
AcDbEntity
  8
Table_Miura_9590-71_2D
100
AcDbSpline
210
0.0
220
0.0
230
1.0
 70
    12
 71
     2
 72
     6
 73
     3
 74
     0
 42
0.0000000001
 43
0.0000000001
 40
0.0
 40
0.0
 40
0.0
 40
1.517675704074519
 40
1.517675704074519
 40
1.517675704074519
 10
1016.407846543043
 20
1569.326622316466
 30
0.0
 41
1.0
 10
1015.459594347534
 20
1569.295481088828
 30
0.0
 41
0.7256366645658145
 10
1015.440133080256
 20
1568.347439386284
 30
0.0
 41
1.0
  0
POLYLINE
  5
109
330
1F
100
AcDbEntity
  8
Table_Miura_9590-71_2D
100
AcDb2dPolyline
 66
     1
 10
0.0
 20
0.0
 30
0.0
  0
VERTEX
  5
10A
330
109
100
AcDbEntity
  8
Table_Miura_9590-71_2D
100
AcDbVertex
100
AcDb2dVertex
 10
664.9906315252738
 20
1201.622223298036
 30
0.0
  0
VERTEX
  5
10B
330
109
100
AcDbEntity
  8
Table_Miura_9590-71_2D
100
AcDbVertex
100
AcDb2dVertex
 10
707.6291708781828
 20
1201.62222320715
 30
0.0
  0
SEQEND
  5
10C
330
109
100
AcDbEntity
  8
Table_Miura_9590-71_2D
  0
SPLINE
  5
10D
330
1F
100
AcDbEntity
  8
Table_Miura_9590-71_2D
100
AcDbSpline
210
0.0
220
0.0
230
1.0
 70
    24
 71
     2
 72
     6
 73
     3
 74
     0
 42
0.0000000001
 43
0.0000000001
 40
0.0
 40
0.0
 40
0.0
 40
0.0003644189914382
 40
0.0003644189914382
 40
0.0003644189914382
 10
1002.676271791608
 20
1574.327142305961
 30
0.0
 10
1002.676089582113
 20
1574.327142305936
 30
0.0
 10
1002.675907372617
 20
1574.327142305911
 30
0.0
  0
SPLINE
  5
10E
330
1F
100
AcDbEntity
  8
Table_Miura_9590-71_2D
100
AcDbSpline
210
0.0
220
0.0
230
1.0
 70
     8
 71
     3
 72
    12
 73
     8
 74
     0
 42
0.0000000001
 43
0.0000000001
 40
0.0
 40
0.0
 40
0.0
 40
0.0
 40
0.1167120639292131
 40
0.2430944609352435
 40
0.5000268890606814
 40
0.7758895689378357
 40
1.056331722181715
 40
1.056331722181715
 40
1.056331722181715
 40
1.056331722181715
 10
1014.739941258565
 20
1569.32647879064
 30
0.0
 10
1014.778805963126
 20
1569.324910582543
 30
0.0
 10
1014.859530522999
 20
1569.315153188058
 30
0.0
 10
1015.020127105117
 20
1569.268644933088
 30
0.0
 10
1015.212975565834
 20
1569.157529943522
 30
0.0
 10
1015.397179715617
 20
1568.954674592369
 30
0.0
 10
1015.481134474267
 20
1568.78757870876
 30
0.0
 10
1015.511724558097
 20
1568.699226416592
 30
0.0
  0
ARC
  5
10F
330
1F
100
AcDbEntity
  8
Table_Miura_9590-71_2D
100
AcDbCircle
 10
2092.328913823349
 20
1569.926478711167
 30
0.0
 40
10.01354662635185
100
AcDbArc
 50
180.0
 51
183.4313498469807
  0
SPLINE
  5
110
330
1F
100
AcDbEntity
  8
Table_Miura_9590-71_2D
100
AcDbSpline
210
0.0
220
0.0
230
1.0
 70
    12
 71
     2
 72
     6
 73
     3
 74
     0
 42
0.0000000001
 43
0.0000000001
 40
-3.332521385645805
 40
-3.332521385645805
 40
-3.332521385645805
 40
0.0
 40
0.0
 40
0.0
 10
2085.665840583267
 20
1569.327142349017
 30
0.0
 41
1.0
 10
2083.999579890443
 20
1569.327142369301
 30
0.0
 41
0.9999999999999998
 10
2082.333319197621
 20
1569.32714231462
 30
0.0
 41
1.0
  0
SPLINE
  5
111
330
1F
100
AcDbEntity
  8
Table_Miura_9590-71_2D
100
AcDbSpline
210
0.0
220
0.0
230
1.0
 70
    24
 71
     2
 72
     6
 73
     3
 74
     0
 42
0.0000000001
 43
0.0000000001
 40
-8.348680839593044
 40
-8.348680839593044
 40
-8.348680839593044
 40
0.0
 40
0.0
 40
0.0
 10
2094.01452142286
 20
1569.327142320149
 30
0.0
 10
2089.840181003063
 20
1569.327142334583
 30
0.0
 10
2085.665840583267
 20
1569.327142349017
 30
0.0
  0
SPLINE
  5
112
330
1F
100
AcDbEntity
  8
Table_Miura_9590-71_2D
100
AcDbSpline
210
0.0
220
0.0
230
1.0
 70
    24
 71
     2
 72
     6
 73
     3
 74
     0
 42
0.0000000001
 43
0.0000000001
 40
-0.0160983755549751
 40
-0.0160983755549751
 40
-0.0160983755549751
 40
0.0
 40
0.0
 40
0.0
 10
2094.030619798415
 20
1569.327142320053
 30
0.0
 10
2094.022570610637
 20
1569.327142320101
 30
0.0
 10
2094.01452142286
 20
1569.327142320149
 30
0.0
  0
SPLINE
  5
113
330
1F
100
AcDbEntity
  8
Table_Miura_9590-71_2D
100
AcDbSpline
210
0.0
220
0.0
230
1.0
 70
    12
 71
     3
 72
    10
 73
     6
 74
     0
 42
0.0000000001
 43
0.0000000001
 40
-1.41140173157308
 40
-1.41140173157308
 40
-1.41140173157308
 40
-1.41140173157308
 40
-0.7080051891948135
 40
-0.7080051891948135
 40
-0.0049548717152337
 40
-0.0049548717152337
 40
-0.0049548717152337
 40
-0.0049548717152337
 10
2094.876563457701
 20
1570.163251993452
 30
0.0
 41
1.0
 10
2094.842869757947
 20
1569.929378533033
 30
0.0
 41
1.0
 10
2094.738444827072
 20
1569.717382412244
 30
0.0
 41
1.0
 10
2094.4270055394
 20
1569.410855033292
 30
0.0
 41
1.0
 10
2094.231335575175
 20
1569.327137000989
 30
0.0
 41
1.0
 10
2094.030619798415
 20
1569.327142320053
 30
0.0
 41
1.0
  0
SPLINE
  5
114
330
1F
100
AcDbEntity
  8
Table_Miura_9590-71_2D
100
AcDbSpline
210
0.0
220
0.0
230
1.0
 70
     8
 71
     3
 72
    18
 73
    14
 74
     0
 42
0.0000000001
 43
0.0000000001
 40
-14.64921461756716
 40
-14.64921461756716
 40
-14.64921461756716
 40
-14.64921461756716
 40
-8.184836209513707
 40
-7.290264732586142
 40
-6.899780132333247
 40
-6.604817185447027
 40
-6.281926508383727
 40
-5.91772510768846
 40
-5.25048406050812
 40
-3.984914730732004
 40
-2.69671351258406
 40
-1.37770462440535
 40
0.0
 40
0.0
 40
0.0
 40
0.0
 10
2107.315243550111
 20
1574.327142354251
 30
0.0
 10
2105.16053892476
 20
1574.327050889159
 30
0.0
 10
2102.707681012218
 20
1574.327296309161
 30
0.0
 10
2100.124631949016
 20
1574.327029766487
 30
0.0
 10
2099.598012543249
 20
1574.327429502174
 30
0.0
 10
2099.261820504167
 20
1574.328199219554
 30
0.0
 10
2098.934920607344
 20
1574.308835242086
 30
0.0
 10
2098.487219082123
 20
1574.247299560235
 30
0.0
 10
2097.743275481033
 20
1574.058560008358
 30
0.0
 10
2096.775390821767
 20
1573.566591966647
 30
0.0
 10
2095.839213818984
 20
1572.657274469827
 30
0.0
 10
2095.175964363182
 20
1571.4928062518
 30
0.0
 10
2094.941958680246
 20
1570.617750940457
 30
0.0
 10
2094.876563457701
 20
1570.163251993452
 30
0.0
  0
SPLINE
  5
115
330
1F
100
AcDbEntity
  8
Table_Miura_9590-71_2D
100
AcDbSpline
210
0.0
220
0.0
230
1.0
 70
     8
 71
     3
 72
    18
 73
    14
 74
     0
 42
0.0000000001
 43
0.0000000001
 40
0.0
 40
0.0
 40
0.0
 40
0.0
 40
1.377704624405373
 40
2.696713512584107
 40
3.984914730732072
 40
5.250484060508209
 40
5.917725107688561
 40
6.281926508383835
 40
6.60481718544714
 40
6.899780132333365
 40
7.290264732586267
 40
8.184836209513849
 40
14.64921461756716
 40
14.64921461756716
 40
14.64921461756716
 40
14.64921461756716
 10
2119.75392364252
 20
1570.163251993452
 30
0.0
 10
2119.688528419975
 20
1570.617750940457
 30
0.0
 10
2119.454522737039
 20
1571.4928062518
 30
0.0
 10
2118.791273281237
 20
1572.657274469827
 30
0.0
 10
2117.855096278454
 20
1573.566591966647
 30
0.0
 10
2116.887211619188
 20
1574.058560008358
 30
0.0
 10
2116.143268018098
 20
1574.247299560235
 30
0.0
 10
2115.695566492877
 20
1574.308835242086
 30
0.0
 10
2115.368666596054
 20
1574.328199219554
 30
0.0
 10
2115.032474556972
 20
1574.327429502174
 30
0.0
 10
2114.505855151206
 20
1574.327029766487
 30
0.0
 10
2111.922806088003
 20
1574.327296309161
 30
0.0
 10
2109.469948175461
 20
1574.327050889159
 30
0.0
 10
2107.315243550111
 20
1574.327142354251
 30
0.0
  0
SPLINE
  5
116
330
1F
100
AcDbEntity
  8
Table_Miura_9590-71_2D
100
AcDbSpline
210
0.0
220
0.0
230
1.0
 70
    12
 71
     3
 72
    10
 73
     6
 74
     0
 42
0.0000000001
 43
0.0000000001
 40
0.0049548717152337
 40
0.0049548717152337
 40
0.0049548717152337
 40
0.0049548717152337
 40
0.7080051891948135
 40
0.7080051891948135
 40
1.41140173157308
 40
1.41140173157308
 40
1.41140173157308
 40
1.41140173157308
 10
2120.599867301807
 20
1569.327142320053
 30
0.0
 41
1.0
 10
2120.399151525046
 20
1569.327137000989
 30
0.0
 41
1.0
 10
2120.203481560821
 20
1569.410855033292
 30
0.0
 41
1.0
 10
2119.892042273149
 20
1569.717382412244
 30
0.0
 41
1.0
 10
2119.787617342274
 20
1569.929378533033
 30
0.0
 41
1.0
 10
2119.75392364252
 20
1570.163251993452
 30
0.0
 41
1.0
  0
SPLINE
  5
117
330
1F
100
AcDbEntity
  8
Table_Miura_9590-71_2D
100
AcDbSpline
210
0.0
220
0.0
230
1.0
 70
    24
 71
     2
 72
     6
 73
     3
 74
     0
 42
0.0000000001
 43
0.0000000001
 40
0.0
 40
0.0
 40
0.0
 40
0.0160983755549751
 40
0.0160983755549751
 40
0.0160983755549751
 10
2120.615965677362
 20
1569.327142320149
 30
0.0
 10
2120.607916489584
 20
1569.327142320101
 30
0.0
 10
2120.599867301807
 20
1569.327142320053
 30
0.0
  0
SPLINE
  5
118
330
1F
100
AcDbEntity
  8
Table_Miura_9590-71_2D
100
AcDbSpline
210
0.0
220
0.0
230
1.0
 70
    24
 71
     2
 72
     6
 73
     3
 74
     0
 42
0.0000000001
 43
0.0000000001
 40
0.0
 40
0.0
 40
0.0
 40
8.348680839593044
 40
8.348680839593044
 40
8.348680839593044
 10
2128.964646516954
 20
1569.327142349017
 30
0.0
 10
2124.790306097158
 20
1569.327142334583
 30
0.0
 10
2120.615965677362
 20
1569.327142320149
 30
0.0
  0
SPLINE
  5
119
330
1F
100
AcDbEntity
  8
Table_Miura_9590-71_2D
100
AcDbSpline
210
0.0
220
0.0
230
1.0
 70
    12
 71
     2
 72
     6
 73
     3
 74
     0
 42
0.0000000001
 43
0.0000000001
 40
0.0
 40
0.0
 40
0.0
 40
3.332521385645805
 40
3.332521385645805
 40
3.332521385645805
 10
2132.2971679026
 20
1569.32714231462
 30
0.0
 41
1.0
 10
2130.630907209778
 20
1569.327142369301
 30
0.0
 41
0.9999999999999998
 10
2128.964646516954
 20
1569.327142349017
 30
0.0
 41
1.0
  0
ARC
  5
11A
330
1F
100
AcDbEntity
  8
Table_Miura_9590-71_2D
100
AcDbCircle
 10
2122.301573276872
 20
1569.926478711167
 30
0.0
 40
10.01354662635185
100
AcDbArc
 50
356.5686501530192
 51
0.0
  0
SPLINE
  5
11B
330
1F
100
AcDbEntity
  8
Table_Miura_9590-71_2D
100
AcDbSpline
210
0.0
220
0.0
230
1.0
 70
    12
 71
     3
 72
    12
 73
     8
 74
     0
 42
0.0000000001
 43
0.0000000001
 40
-0.5262507170806857
 40
-0.5262507170806857
 40
-0.5262507170806857
 40
-0.5262507170806857
 40
-0.5145170103963779
 40
-0.5145170103963779
 40
-0.2542829628112115
 40
-0.2542829628112115
 40
-0.0317448945959232
 40
-0.0317448945959232
 40
-0.0317448945959232
 40
-0.0317448945959232
 10
2086.188034376301
 20
1569.072474681615
 30
0.0
 41
1.0
 10
2086.185557698332
 20
1569.076911419581
 30
0.0
 41
1.0
 10
2086.183066360911
 20
1569.081280356122
 30
0.0
 41
1.0
 10
2086.125007503572
 20
1569.180928347216
 30
0.0
 41
1.0
 10
2086.065893434752
 20
1569.241056807411
 30
0.0
 41
1.0
 10
2085.962337193839
 20
1569.308875501937
 30
0.0
 41
1.0
 10
2085.916735973657
 20
1569.323351318564
 30
0.0
 41
1.0
 10
2085.873215040353
 20
1569.326479975012
 30
0.0
 41
1.0
  0
SPLINE
  5
11C
330
1F
100
AcDbEntity
  8
Table_Miura_9590-71_2D
100
AcDbSpline
210
0.0
220
0.0
230
1.0
 70
    12
 71
     3
 72
    18
 73
    14
 74
     0
 42
0.0000000001
 43
0.0000000001
 40
-17.08061118246446
 40
-17.08061118246446
 40
-17.08061118246446
 40
-17.08061118246446
 40
-15.57895392647034
 40
-15.57895392647034
 40
-15.57895392647034
 40
-11.24807156559795
 40
-11.24807156559795
 40
-11.24807156559795
 40
-8.873594413233326
 40
-6.279800604855796
 40
-3.187801552011507
 40
-1.394045745757029
 40
0.0
 40
0.0
 40
0.0
 40
0.0
 10
2086.820993024571
 20
1569.326568351597
 30
0.0
 41
1.0
 10
2086.26714388595
 20
1569.307880914227
 30
0.0
 41
0.8207490813200228
 10
2085.874956715249
 20
1568.916195506313
 30
0.0
 41
0.8207490813200228
 10
2085.855331244401
 20
1568.362142035463
 30
0.0
 41
1.0
 10
2085.803915823478
 20
1566.919103747433
 30
0.0
 41
0.9999156577956789
 10
2085.729541090662
 20
1565.476983608368
 30
0.0
 41
0.9999156577956789
 10
2085.63222586474
 20
1564.036146513042
 30
0.0
 41
1.0
 10
2085.578983921968
 20
1563.245798378418
 30
0.0
 41
1.0
 10
2085.454909116843
 20
1561.59431460943
 30
0.0
 41
1.0
 10
2085.214797823163
 20
1558.918250625158
 30
0.0
 41
1.0
 10
2084.963757875987
 20
1556.437710625652
 30
0.0
 41
1.0
 10
2084.739776363816
 20
1554.356457771117
 30
0.0
 41
1.0
 10
2084.62155436271
 20
1553.298316896785
 30
0.0
 41
1.0
 10
2084.567786561793
 20
1552.836753993548
 30
0.0
 41
1.0
  0
SPLINE
  5
11D
330
1F
100
AcDbEntity
  8
Table_Miura_9590-71_2D
100
AcDbSpline
210
0.0
220
0.0
230
1.0
 70
     8
 71
     3
 72
    16
 73
    12
 74
     0
 42
0.0000000001
 43
0.0000000001
 40
-33.3642801434906
 40
-33.3642801434906
 40
-33.3642801434906
 40
-33.3642801434906
 40
-24.17426881783292
 40
-19.70973193739507
 40
-17.41415730793448
 40
-12.69286067967022
 40
-10.39643749466709
 40
-6.695123544693319
 40
-3.023047667395003
 40
-1.441026840298903
 40
0.0
 40
0.0
 40
0.0
 40
0.0
 10
2084.567786561794
 20
1552.836753993548
 30
0.0
 10
2084.21332735393
 20
1549.793943644719
 30
0.0
 10
2083.604204229691
 20
1545.282898748593
 30
0.0
 10
2082.800085486752
 20
1540.027346293717
 30
0.0
 10
2082.202575941548
 20
1536.247117220129
 30
0.0
 10
2081.708788774397
 20
1533.182226146637
 30
0.0
 10
2081.153361192457
 20
1529.652619070761
 30
0.0
 10
2080.675457713901
 20
1526.464947418718
 30
0.0
 10
2080.290923320331
 20
1523.504374625475
 30
0.0
 10
2080.063911871222
 20
1521.2840841956
 30
0.0
 10
2079.983271836706
 20
1520.279587672298
 30
0.0
 10
2079.950934124784
 20
1519.800111090727
 30
0.0
  0
SPLINE
  5
11E
330
1F
100
AcDbEntity
  8
Table_Miura_9590-71_2D
100
AcDbSpline
210
0.0
220
0.0
230
1.0
 70
     8
 71
     3
 72
    12
 73
     8
 74
     0
 42
0.0000000001
 43
0.0000000001
 40
-2.866008512548971
 40
-2.866008512548971
 40
-2.866008512548971
 40
-2.866008512548971
 40
-2.1803500891602
 40
-1.316467333291305
 40
-0.6436630852735566
 40
-0.3236325452860642
 40
0.0
 40
0.0
 40
0.0
 40
0.0
 10
2079.950934124784
 20
1519.800111090727
 30
0.0
 10
2079.935395480309
 20
1519.57186377647
 30
0.0
 10
2079.907796102995
 20
1519.056081194263
 30
0.0
 10
2079.876050193987
 20
1518.315962097246
 30
0.0
 10
2079.858640206487
 20
1517.697283172198
 30
0.0
 10
2079.852798319143
 20
1517.258488676369
 30
0.0
 10
2079.851573443115
 20
1517.043941266724
 30
0.0
 10
2079.851571250213
 20
1516.936050913191
 30
0.0
  0
SPLINE
  5
11F
330
1F
100
AcDbEntity
  8
Table_Miura_9590-71_2D
100
AcDbSpline
210
0.0
220
0.0
230
1.0
 70
     8
 71
     3
 72
    13
 73
     9
 74
     0
 42
0.0000000001
 43
0.0000000001
 40
-8.067492795701002
 40
-8.067492795701002
 40
-8.067492795701002
 40
-8.067492795701002
 40
-6.929436622567084
 40
-5.933962300934526
 40
-4.0143213514352
 40
-2.037649979843423
 40
-1.015652899145925
 40
0.0
 40
0.0
 40
0.0
 40
0.0
 10
2079.851571250213
 20
1516.936050913191
 30
0.0
 10
2079.850917956172
 20
1516.556707932125
 30
0.0
 10
2079.864605537353
 20
1515.845330320535
 30
0.0
 10
2079.983231185875
 20
1514.498549650766
 30
0.0
 10
2080.328006579847
 20
1512.89865673685
 30
0.0
 10
2080.950425458195
 20
1511.375149018429
 30
0.0
 10
2081.60552088326
 20
1510.20752979136
 30
0.0
 10
2081.985557234259
 20
1509.643600197511
 30
0.0
 10
2082.185693577688
 20
1509.37065689505
 30
0.0
  0
SPLINE
  5
120
330
1F
100
AcDbEntity
  8
Table_Miura_9590-71_2D
100
AcDbSpline
210
0.0
220
0.0
230
1.0
 70
     8
 71
     3
 72
    13
 73
     9
 74
     0
 42
0.0000000001
 43
0.0000000001
 40
0.0
 40
0.0
 40
0.0
 40
0.0
 40
0.0787536068012881
 40
0.1449423458634473
 40
0.266120321626831
 40
0.3853723078620238
 40
0.4472243187928732
 40
0.5284135023430945
 40
0.5284135023430945
 40
0.5284135023430945
 40
0.5284135023430945
 10
1833.536705920583
 20
1201.621842528102
 30
0.0
 10
1833.562894569923
 20
1201.621279268963
 30
0.0
 10
1833.611414404634
 20
1201.616786248667
 30
0.0
 10
1833.696045288914
 20
1201.589229831096
 30
0.0
 10
1833.773244171683
 20
1201.512274511417
 30
0.0
 10
1833.778120931008
 20
1201.404805288123
 30
0.0
 10
1833.738839834776
 20
1201.325768915802
 30
0.0
 10
1833.708295016677
 20
1201.2889479028
 30
0.0
 10
1833.690361035727
 20
1201.268656231658
 30
0.0
  0
SPLINE
  5
121
330
1F
100
AcDbEntity
  8
Table_Miura_9590-71_2D
100
AcDbSpline
210
0.0
220
0.0
230
1.0
 70
    24
 71
     2
 72
     6
 73
     3
 74
     0
 42
0.0000000001
 43
0.0000000001
 40
0.0
 40
0.0
 40
0.0
 40
0.524413613475097
 40
0.524413613475097
 40
0.524413613475097
 10
1833.690361035727
 20
1201.268656231658
 30
0.0
 10
1833.518606574565
 20
1201.070331356705
 30
0.0
 10
1833.346852113403
 20
1200.872006481751
 30
0.0
  0
SPLINE
  5
122
330
1F
100
AcDbEntity
  8
Table_Miura_9590-71_2D
100
AcDbSpline
210
0.0
220
0.0
230
1.0
 70
     8
 71
     3
 72
    12
 73
     8
 74
     0
 42
0.0000000001
 43
0.0000000001
 40
0.0
 40
0.0
 40
0.0
 40
0.0
 40
0.2152508561583033
 40
0.4345163837059823
 40
1.014949707012151
 40
1.738429140534348
 40
2.240363334908873
 40
2.240363334908873
 40
2.240363334908873
 40
2.240363334908873
 10
1833.346852113403
 20
1200.872006481751
 30
0.0
 10
1833.299812973351
 20
1200.817457747346
 30
0.0
 10
1833.203974647574
 20
1200.708801734468
 30
0.0
 10
1832.967618360053
 20
1200.46661774984
 30
0.0
 10
1832.59561283216
 20
1200.120867503923
 30
0.0
 10
1832.141811224023
 20
1199.725362243274
 30
0.0
 10
1831.823599253388
 20
1199.468960708913
 30
0.0
 10
1831.686958803507
 20
1199.372199305607
 30
0.0
  0
SPLINE
  5
123
330
1F
100
AcDbEntity
  8
Table_Miura_9590-71_2D
100
AcDbSpline
210
0.0
220
0.0
230
1.0
 70
     8
 71
     3
 72
    12
 73
     8
 74
     0
 42
0.0000000001
 43
0.0000000001
 40
0.0
 40
0.0
 40
0.0
 40
0.0
 40
2.849423647238892
 40
5.573258475154479
 40
11.17057419198277
 40
16.6544972940824
 40
22.23406149512204
 40
22.23406149512204
 40
22.23406149512204
 40
22.23406149512204
 10
1831.686958803507
 20
1199.372199305607
 30
0.0
 10
1830.914728035728
 20
1198.819111549655
 30
0.0
 10
1829.362266067717
 20
1197.796245680312
 30
0.0
 10
1826.105832122703
 20
1195.98545508058
 30
0.0
 10
1821.843506386889
 20
1194.215127720442
 30
0.0
 10
1816.434857317561
 20
1192.886296403376
 30
0.0
 10
1812.750616352551
 20
1192.559082541703
 30
0.0
 10
1810.890896770635
 20
1192.537360471041
 30
0.0
  0
SPLINE
  5
124
330
1F
100
AcDbEntity
  8
Table_Miura_9590-71_2D
100
AcDbSpline
210
0.0
220
0.0
230
1.0
 70
     8
 71
     5
 72
    12
 73
     6
 74
     0
 42
0.0000000001
 43
0.0000000001
 40
-1.0
 40
-1.0
 40
-1.0
 40
-1.0
 40
-1.0
 40
-1.0
 40
0.0
 40
0.0
 40
0.0
 40
0.0
 40
0.0
 40
0.0
 10
1810.890896770635
 20
1192.537360471041
 30
0.0
 10
1810.808126546534
 20
1192.536393690525
 30
0.0
 10
1810.725353559505
 20
1192.535663456157
 30
0.0
 10
1810.642576028763
 20
1192.535223088694
 30
0.0
 10
1810.55980017281
 20
1192.534978447507
 30
0.0
 10
1810.477024302902
 20
1192.534973630727
 30
0.0
  0
SPLINE
  5
125
330
1F
100
AcDbEntity
  8
Table_Miura_9590-71_2D
100
AcDbSpline
210
0.0
220
0.0
230
1.0
 70
     8
 71
     3
 72
    12
 73
     8
 74
     0
 42
0.0000000001
 43
0.0000000001
 40
0.0
 40
0.0
 40
0.0
 40
0.0
 40
2.782398956976484
 40
5.60255636646087
 40
11.31396921066574
 40
16.96595331393149
 40
22.64829073387322
 40
22.64829073387322
 40
22.64829073387322
 40
22.64829073387322
 10
1810.477024302902
 20
1192.534973630727
 30
0.0
 10
1809.549552136447
 20
1192.53491966053
 30
0.0
 10
1807.682070227301
 20
1192.607561446681
 30
0.0
 10
1803.933178759276
 20
1193.043278726751
 30
0.0
 10
1799.319004057685
 20
1194.13952789247
 30
0.0
 10
1794.04778336123
 20
1196.305948610079
 30
0.0
 10
1790.806997735887
 20
1198.269857831581
 30
0.0
 10
1789.266729376198
 20
1199.372257409585
 30
0.0
  0
SPLINE
  5
126
330
1F
100
AcDbEntity
  8
Table_Miura_9590-71_2D
100
AcDbSpline
210
0.0
220
0.0
230
1.0
 70
     8
 71
     3
 72
    16
 73
    12
 74
     0
 42
0.0000000001
 43
0.0000000001
 40
0.0
 40
0.0
 40
0.0
 40
0.0
 40
0.1449268675943032
 40
0.2673386247060249
 40
0.5163843678365243
 40
0.7646474073394522
 40
0.9969847930951103
 40
1.194773719318494
 40
1.376962800151374
 40
1.556234553971886
 40
1.789638013214852
 40
1.789638013214852
 40
1.789638013214852
 40
1.789638013214852
 10
1789.266729376198
 20
1199.372257409585
 30
0.0
 10
1789.227354615674
 20
1199.400349119855
 30
0.0
 10
1789.15524389167
 20
1199.452787661397
 30
0.0
 10
1789.024672345178
 20
1199.565209053563
 30
0.0
 10
1788.886282406541
 20
1199.719562414151
 30
0.0
 10
1788.756422158995
 20
1199.926322449171
 30
0.0
 10
1788.674282725357
 20
1200.1383708369
 30
0.0
 10
1788.647298108984
 20
1200.34245565207
 30
0.0
 10
1788.676666916959
 20
1200.528776148702
 30
0.0
 10
1788.76520146647
 20
1200.70833939541
 30
0.0
 10
1788.85496723156
 20
1200.813471861016
 30
0.0
 10
1788.905994752958
 20
1200.872178708283
 30
0.0
  0
SPLINE
  5
127
330
1F
100
AcDbEntity
  8
Table_Miura_9590-71_2D
100
AcDbSpline
210
0.0
220
0.0
230
1.0
 70
    24
 71
     2
 72
     6
 73
     3
 74
     0
 42
0.0000000001
 43
0.0000000001
 40
0.0
 40
0.0
 40
0.0
 40
0.5244495011186676
 40
0.5244495011186676
 40
0.5244495011186676
 10
1788.905994752958
 20
1200.872178708283
 30
0.0
 10
1789.077743118622
 20
1201.070497388602
 30
0.0
 10
1789.249491484287
 20
1201.268816068921
 30
0.0
  0
SPLINE
  5
128
330
1F
100
AcDbEntity
  8
Table_Miura_9590-71_2D
100
AcDbSpline
210
0.0
220
0.0
230
1.0
 70
     8
 71
     3
 72
    12
 73
     8
 74
     0
 42
0.0000000001
 43
0.0000000001
 40
0.0
 40
0.0
 40
0.0
 40
0.0
 40
0.089002379783791
 40
0.1797960093880787
 40
0.4111935266141908
 40
0.6556287843907624
 40
0.8529822444616082
 40
0.8529822444616082
 40
0.8529822444616082
 40
0.8529822444616082
 10
1789.249491484287
 20
1201.268816068921
 30
0.0
 10
1789.268803446122
 20
1201.291543873775
 30
0.0
 10
1789.309597123376
 20
1201.335671933763
 30
0.0
 10
1789.418273764575
 20
1201.419924451266
 30
0.0
 10
1789.58479494661
 20
1201.510181629876
 30
0.0
 10
1789.794301928133
 20
1201.59198197888
 30
0.0
 10
1789.939821290039
 20
1201.619830827364
 30
0.0
 10
1790.005711539011
 20
1201.621614558634
 30
0.0
  0
SPLINE
  5
129
330
1F
100
AcDbEntity
  8
Table_Miura_9590-71_2D
100
AcDbSpline
210
0.0
220
0.0
230
1.0
 70
    12
 71
     3
 72
    15
 73
    11
 74
     0
 42
0.0000000001
 43
0.0000000001
 40
-2.500401592028198
 40
-2.500401592028198
 40
-2.500401592028198
 40
-2.500401592028198
 40
-2.092447594524908
 40
-1.587472916212024
 40
-0.9787609925742227
 40
-0.6090244151814629
 40
0.0
 40
0.0
 40
0.0
 40
0.3719149623461165
 40
0.3719149623461165
 40
0.3719149623461165
 40
0.3719149623461165
 10
2082.315367197
 20
1572.671168772702
 30
0.0
 41
1.0
 10
2082.296064804012
 20
1572.536553541411
 30
0.0
 41
1.0
 10
2082.262313223583
 20
1572.234039835535
 30
0.0
 41
1.0
 10
2082.226262479037
 20
1571.728044750475
 30
0.0
 41
1.0
 10
2082.20317121585
 20
1571.234093697717
 30
0.0
 41
1.0
 10
2082.183099064011
 20
1570.705317430035
 30
0.0
 41
1.0
 10
2082.171954790805
 20
1570.37470955334
 30
0.0
 41
1.0
 10
2082.164918347607
 20
1570.171823968212
 30
0.0
 41
1.0
 10
2082.160621365276
 20
1570.04792674488
 30
0.0
 41
0.9999990251576337
 10
2082.15656012988
 20
1569.918083183677
 30
0.0
 41
0.9999990251576337
 10
2082.151158978804
 20
1569.794229182638
 30
0.0
 41
1.0
  0
SPLINE
  5
12A
330
1F
100
AcDbEntity
  8
Table_Miura_9590-71_2D
100
AcDbSpline
210
0.0
220
0.0
230
1.0
 70
    12
 71
     2
 72
     6
 73
     3
 74
     0
 42
0.0000000001
 43
0.0000000001
 40
-0.8893486808566594
 40
-0.8893486808566594
 40
-0.8893486808566594
 40
0.0
 40
0.0
 40
0.0
 10
2082.151158978804
 20
1569.794229182638
 30
0.0
 41
1.0
 10
2082.126887674393
 20
1569.237662976683
 30
0.0
 41
0.9999953443438412
 10
2082.106951385575
 20
1568.793434385886
 30
0.0
 41
1.0
  0
SPLINE
  5
12B
330
1F
100
AcDbEntity
  8
Table_Miura_9590-71_2D
100
AcDbSpline
210
0.0
220
0.0
230
1.0
 70
     8
 71
     3
 72
    16
 73
    12
 74
     0
 42
0.0000000001
 43
0.0000000001
 40
-44.0809111380504
 40
-44.0809111380504
 40
-44.0809111380504
 40
-44.0809111380504
 40
-41.32262018863005
 40
-38.57568005800471
 40
-32.83955618066763
 40
-27.18774927002762
 40
-21.55559266881473
 40
-10.57964571019579
 40
-5.268782545111494
 40
-2.760660175474777
 40
0.0
 40
0.0
 40
0.0
 40
0.0
 10
2082.106951385575
 20
1568.793434385886
 30
0.0
 10
2082.065731126284
 20
1567.874947607072
 30
0.0
 10
2081.956445438834
 20
1566.042846062564
 30
0.0
 10
2081.604350036541
 20
1562.311794602202
 30
0.0
 10
2080.946991885175
 20
1557.644124281983
 30
0.0
 10
2079.814054748877
 20
1552.082122252903
 30
0.0
 10
2077.883955832203
 20
1544.914209675954
 30
0.0
 10
2075.327677906832
 20
1538.053456723503
 30
0.0
 10
2072.560667588304
 20
1532.428076195787
 30
0.0
 10
2070.840402932808
 20
1529.349134350888
 30
0.0
 10
2069.907347155014
 20
1527.827193115499
 30
0.0
 10
2069.423560971229
 20
1527.044574212188
 30
0.0
  0
SPLINE
  5
12C
330
1F
100
AcDbEntity
  8
Table_Miura_9590-71_2D
100
AcDbSpline
210
0.0
220
0.0
230
1.0
 70
     8
 71
     3
 72
    18
 73
    14
 74
     0
 42
0.0000000001
 43
0.0000000001
 40
-23.989786789493
 40
-23.989786789493
 40
-23.989786789493
 40
-23.989786789493
 40
-22.58263901442267
 40
-21.34373030388689
 40
-18.62944873608983
 40
-13.20000755298573
 40
-11.39409917538949
 40
-8.514888277655798
 40
-6.682465050476555
 40
-5.425659454196719
 40
-3.282334438373458
 40
-1.290606615411304
 40
0.0
 40
0.0
 40
0.0
 40
0.0
 10
2069.423560971229
 20
1527.044574212188
 30
0.0
 10
2069.176932167223
 20
1526.645603818684
 30
0.0
 10
2068.711699230765
 20
1525.896231497215
 30
0.0
 10
2067.745320556434
 20
1524.393274295417
 30
0.0
 10
2065.999928488231
 20
1521.797723285691
 30
0.0
 10
2064.039387682836
 20
1519.121227583889
 30
0.0
 10
2061.952004903694
 20
1516.473428840123
 30
0.0
 10
2060.565923685964
 20
1514.800242136316
 30
0.0
 10
2059.271337353442
 20
1513.289611414279
 30
0.0
 10
2058.12624678569
 20
1511.973919015226
 30
0.0
 10
2056.945473572362
 20
1510.618952771772
 30
0.0
 10
2055.762844336147
 20
1509.250619320495
 30
0.0
 10
2055.032712924758
 20
1508.406026799898
 30
0.0
 10
2054.751076922586
 20
1508.08082155636
 30
0.0
  0
SPLINE
  5
12D
330
1F
100
AcDbEntity
  8
Table_Miura_9590-71_2D
100
AcDbSpline
210
0.0
220
0.0
230
1.0
 70
    24
 71
     2
 72
     6
 73
     3
 74
     0
 42
0.0000000001
 43
0.0000000001
 40
-405.407916564433
 40
-405.407916564433
 40
-405.407916564433
 40
0.0
 40
0.0
 40
0.0
 10
2054.751076922587
 20
1508.08082155636
 30
0.0
 10
1922.050186613525
 20
1354.851031977242
 30
0.0
 10
1789.349296304463
 20
1201.621242398124
 30
0.0
  0
POLYLINE
  5
12E
330
1F
100
AcDbEntity
  8
Table_Miura_9590-71_2D
100
AcDb2dPolyline
 66
     1
 10
0.0
 20
0.0
 30
0.0
  0
VERTEX
  5
12F
330
12E
100
AcDbEntity
  8
Table_Miura_9590-71_2D
100
AcDbVertex
100
AcDb2dVertex
 10
1789.349296304463
 20
1201.621242398124
 30
0.0
  0
VERTEX
  5
130
330
12E
100
AcDbEntity
  8
Table_Miura_9590-71_2D
100
AcDbVertex
100
AcDb2dVertex
 10
1834.017730416526
 20
1201.621566130814
 30
0.0
  0
SEQEND
  5
131
330
12E
100
AcDbEntity
  8
Table_Miura_9590-71_2D
  0
SPLINE
  5
132
330
1F
100
AcDbEntity
  8
Table_Miura_9590-71_2D
100
AcDbSpline
210
0.0
220
0.0
230
1.0
 70
    24
 71
     2
 72
     6
 73
     3
 74
     0
 42
0.0000000001
 43
0.0000000001
 40
-379.0828237665147
 40
-379.0828237665147
 40
-379.0828237665147
 40
0.0
 40
0.0
 40
0.0
 10
1834.017730416526
 20
1201.621566130814
 30
0.0
 10
1958.101711412726
 20
1344.90140588098
 30
0.0
 10
2082.185692408926
 20
1488.181245631147
 30
0.0
  0
SPLINE
  5
133
330
1F
100
AcDbEntity
  8
Table_Miura_9590-71_2D
100
AcDbSpline
210
0.0
220
0.0
230
1.0
 70
     8
 71
     3
 72
    13
 73
     9
 74
     0
 42
0.0000000001
 43
0.0000000001
 40
0.0
 40
0.0
 40
0.0
 40
0.0
 40
0.0902184704601651
 40
0.1761896442498796
 40
0.3455632779639898
 40
0.4948657560424342
 40
0.556563220459395
 40
0.6273565859503734
 40
0.6273565859503734
 40
0.6273565859503734
 40
0.6273565859503734
 10
2131.874547108651
 20
1201.621503333855
 30
0.0
 10
2131.904624793629
 20
1201.620446808636
 30
0.0
 10
2131.963191640994
 20
1201.615283129389
 30
0.0
 10
2132.075300063409
 20
1201.586365382076
 30
0.0
 10
2132.195452552931
 20
1201.522134368159
 30
0.0
 10
2132.283115415557
 20
1201.426651756447
 30
0.0
 10
2132.31496669042
 20
1201.336721900091
 30
0.0
 10
2132.31572341514
 20
1201.292231623162
 30
0.0
 10
2132.315712336508
 20
1201.268669780823
 30
0.0
  0
SPLINE
  5
134
330
1F
100
AcDbEntity
  8
Table_Miura_9590-71_2D
100
AcDbSpline
210
0.0
220
0.0
230
1.0
 70
    24
 71
     2
 72
     6
 73
     3
 74
     0
 42
0.0000000001
 43
0.0000000001
 40
0.0
 40
0.0
 40
0.0
 40
0.3964465280210447
 40
0.3964465280210447
 40
0.3964465280210447
 10
2132.315712336508
 20
1201.268669780823
 30
0.0
 10
2132.315698953409
 20
1201.070446516901
 30
0.0
 10
2132.315685570309
 20
1200.87222325298
 30
0.0
  0
SPLINE
  5
135
330
1F
100
AcDbEntity
  8
Table_Miura_9590-71_2D
100
AcDbSpline
210
0.0
220
0.0
230
1.0
 70
     8
 71
     3
 72
    17
 73
    13
 74
     0
 42
0.0000000001
 43
0.0000000001
 40
0.0
 40
0.0
 40
0.0
 40
0.0
 40
0.0962064271533508
 40
0.1738289297854392
 40
0.3373064891879649
 40
0.5367070411386231
 40
0.7755987407383972
 40
1.076140845210532
 40
1.396849041230197
 40
1.692620935227627
 40
1.823404523223936
 40
1.966221085738845
 40
1.966221085738845
 40
1.966221085738845
 40
1.966221085738845
 10
2132.315685570309
 20
1200.87222325298
 30
0.0
 10
2132.315769256236
 20
1200.84014062783
 30
0.0
 10
2132.315329743473
 20
1200.782204942462
 30
0.0
 10
2132.302628469302
 20
1200.670198171785
 30
0.0
 10
2132.259612644802
 20
1200.528941467746
 30
0.0
 10
2132.165733959343
 20
1200.350956134514
 30
0.0
 10
2132.023475201474
 20
1200.149533259508
 30
0.0
 10
2131.835637809781
 20
1199.932502533904
 30
0.0
 10
2131.61761614873
 20
1199.717974989374
 30
0.0
 10
2131.426941116914
 20
1199.557334077294
 30
0.0
 10
2131.272917256619
 20
1199.446288809681
 30
0.0
 10
2131.195901190669
 20
1199.397388776479
 30
0.0
 10
2131.155477255824
 20
1199.372210383324
 30
0.0
  0
SPLINE
  5
136
330
1F
100
AcDbEntity
  8
Table_Miura_9590-71_2D
100
AcDbSpline
210
0.0
220
0.0
230
1.0
 70
    24
 71
     2
 72
     6
 73
     3
 74
     0
 42
0.0000000001
 43
0.0000000001
 40
0.0
 40
0.0
 40
0.0
 40
0.0002028258160686
 40
0.0002028258160686
 40
0.0002028258160686
 10
2131.155477255824
 20
1199.372210383324
 30
0.0
 10
2131.155148203605
 20
1199.372003948478
 30
0.0
 10
2131.154819151386
 20
1199.371797513631
 30
0.0
  0
SPLINE
  5
137
330
1F
100
AcDbEntity
  8
Table_Miura_9590-71_2D
100
AcDbSpline
210
0.0
220
0.0
230
1.0
 70
     8
 71
     3
 72
    25
 73
    21
 74
     0
 42
0.0000000001
 43
0.0000000001
 40
0.0
 40
0.0
 40
0.0
 40
0.0
 40
3.199587773031225
 40
6.339228569859388
 40
12.50824278581488
 40
18.76926702610335
 40
21.92722116738235
 40
23.54279560344114
 40
24.35060102343449
 40
24.73612324148421
 40
24.93803802146848
 40
25.02982611215962
 40
25.08490533980845
 40
25.10555096506041
 40
25.11462558692914
 40
25.12056925615265
 40
25.12388541331136
 40
25.12423612731493
 40
25.12438763465248
 40
25.12589178241075
 40
25.12589178241075
 40
25.12589178241075
 40
25.12589178241075
 10
2131.154819151386
 20
1199.371797513631
 30
0.0
 10
2130.249854917136
 20
1198.80638382413
 30
0.0
 10
2128.417899758274
 20
1197.750693651167
 30
0.0
 10
2124.666300935869
 20
1195.925743775243
 30
0.0
 10
2119.778047884082
 20
1194.146255111925
 30
0.0
 10
2114.684772580947
 20
1193.056406281406
 30
0.0
 10
2111.025023674462
 20
1192.666916158202
 30
0.0
 10
2109.166974155158
 20
1192.567547684383
 30
0.0
 10
2108.230957178329
 20
1192.542990988131
 30
0.0
 10
2107.765922296137
 20
1192.536896769888
 30
0.0
 10
2107.539517737808
 20
1192.53545658864
 30
0.0
 10
2107.423260163946
 20
1192.535079479357
 30
0.0
 10
2107.367422540578
 20
1192.534999202477
 30
0.0
 10
2107.339156614303
 20
1192.534978449938
 30
0.0
 10
2107.327268674644
 20
1192.534975039869
 30
0.0
 10
2107.321198635585
 20
1192.534973783053
 30
0.0
 10
2107.317820829864
 20
1192.534973723712
 30
0.0
 10
2107.317193804716
 20
1192.534973563667
 30
0.0
 10
2107.31718326797
 20
1192.534973648264
 30
0.0
 10
2107.316420170059
 20
1192.534973628889
 30
0.0
 10
2107.315931833582
 20
1192.534973631357
 30
0.0
  0
SPLINE
  5
138
330
1F
100
AcDbEntity
  8
Table_Miura_9590-71_2D
100
AcDbSpline
210
0.0
220
0.0
230
1.0
 70
     8
 71
     3
 72
    24
 73
    20
 74
     0
 42
0.0000000001
 43
0.0000000001
 40
0.0
 40
0.0
 40
0.0
 40
0.0
 40
0.0020036010011362
 40
0.0022547111983818
 40
0.0025058213949665
 40
0.0056257993940696
 40
0.01124053246391
 40
0.0196887687649597
 40
0.0391810618565542
 40
0.0782064054598164
 40
0.188361477556041
 40
0.3719392572807771
 40
0.7758219389144186
 40
1.546888493465523
 40
3.125770128968859
 40
6.302017912663969
 40
12.52633999462964
 40
18.76876323914056
 40
25.12624730574042
 40
25.12624730574042
 40
25.12624730574042
 40
25.12624730574042
 10
2107.315931833582
 20
1192.534973631357
 30
0.0
 10
2107.315261868645
 20
1192.534973628946
 30
0.0
 10
2107.314311791365
 20
1192.534973656787
 30
0.0
 10
2107.314139230761
 20
1192.534973566165
 30
0.0
 10
2107.313941828264
 20
1192.534973690206
 30
0.0
 10
2107.310088497811
 20
1192.534973855776
 30
0.0
 10
2107.304957957977
 20
1192.534974692878
 30
0.0
 10
2107.293311300724
 20
1192.534978418948
 30
0.0
 10
2107.271539319734
 20
1192.534992359983
 30
0.0
 10
2107.214814584067
 20
1192.535064833305
 30
0.0
 10
2107.104197001881
 20
1192.53539254498
 30
0.0
 10
2106.871507773215
 20
1192.536843884775
 30
0.0
 10
2106.418785611248
 20
1192.542644040748
 30
0.0
 10
2105.501080107269
 20
1192.56643587376
 30
0.0
 10
2103.661290099129
 20
1192.662447052002
 30
0.0
 10
2100.019251941118
 20
1193.044970520662
 30
0.0
 10
2094.906324129398
 20
1194.13007291679
 30
0.0
 10
2088.993375764133
 20
1196.274619747815
 30
0.0
 10
2085.274440026841
 20
1198.248773895246
 30
0.0
 10
2083.476516194473
 20
1199.371831512763
 30
0.0
  0
SPLINE
  5
139
330
1F
100
AcDbEntity
  8
Table_Miura_9590-71_2D
100
AcDbSpline
210
0.0
220
0.0
230
1.0
 70
     8
 71
     3
 72
    17
 73
    13
 74
     0
 42
0.0000000001
 43
0.0000000001
 40
0.0
 40
0.0
 40
0.0
 40
0.0
 40
0.1433371388019667
 40
0.27412170485795
 40
0.5698915548390706
 40
0.891163767339524
 40
1.191151497005545
 40
1.428512647803955
 40
1.62846324815081
 40
1.792814010234205
 40
1.870845827558682
 40
1.966221106772676
 40
1.966221106772676
 40
1.966221106772676
 40
1.966221106772676
 10
2083.476516194473
 20
1199.371831512763
 30
0.0
 10
2083.43533763781
 20
1199.397478714133
 30
0.0
 10
2083.35818055751
 20
1199.446482048588
 30
0.0
 10
2083.204036859855
 20
1199.557656238517
 30
0.0
 10
2083.013244537165
 20
1199.71844983828
 30
0.0
 10
2082.795259623576
 20
1199.933018119541
 30
0.0
 10
2082.607802487579
 20
1200.14971005498
 30
0.0
 10
2082.46584286604
 20
1200.350707995661
 30
0.0
 10
2082.371878114325
 20
1200.528611683061
 30
0.0
 10
2082.328642390673
 20
1200.670444090329
 30
0.0
 10
2082.316059268062
 20
1200.782629205045
 30
0.0
 10
2082.315600576242
 20
1200.840406384046
 30
0.0
 10
2082.315701567049
 20
1200.87222325298
 30
0.0
  0
SPLINE
  5
13A
330
1F
100
AcDbEntity
  8
Table_Miura_9590-71_2D
100
AcDbSpline
210
0.0
220
0.0
230
1.0
 70
    24
 71
     2
 72
     6
 73
     3
 74
     0
 42
0.0000000001
 43
0.0000000001
 40
0.0
 40
0.0
 40
0.0
 40
0.3964465280210447
 40
0.3964465280210447
 40
0.3964465280210447
 10
2082.315701567049
 20
1200.87222325298
 30
0.0
 10
2082.31568818395
 20
1201.070446516901
 30
0.0
 10
2082.315674800851
 20
1201.268669780823
 30
0.0
  0
SPLINE
  5
13B
330
1F
100
AcDbEntity
  8
Table_Miura_9590-71_2D
100
AcDbSpline
210
0.0
220
0.0
230
1.0
 70
     8
 71
     3
 72
    12
 73
     8
 74
     0
 42
0.0000000001
 43
0.0000000001
 40
0.0
 40
0.0
 40
0.0
 40
0.0
 40
0.0709674213457879
 40
0.1335862693815868
 40
0.2813937667583465
 40
0.4525062216949927
 40
0.6273569207154127
 40
0.6273569207154127
 40
0.6273569207154127
 40
0.6273569207154127
 10
2082.315674800851
 20
1201.268669780823
 30
0.0
 10
2082.315565468997
 20
1201.292288522801
 30
0.0
 10
2082.316548725783
 20
1201.337144495218
 30
0.0
 10
2082.34845792151
 20
1201.426924098889
 30
0.0
 10
2082.436412494328
 20
1201.522376861545
 30
0.0
 10
2082.583275740235
 20
1201.601083974029
 30
0.0
 10
2082.698667242823
 20
1201.620017818766
 30
0.0
 10
2082.756840338406
 20
1201.621496851763
 30
0.0
  0
SPLINE
  5
13C
330
1F
100
AcDbEntity
  8
Table_Miura_9590-71_2D
100
AcDbSpline
210
0.0
220
0.0
230
1.0
 70
    12
 71
     3
 72
    12
 73
     8
 74
     0
 42
0.0000000001
 43
0.0000000001
 40
-0.5262507170806857
 40
-0.5262507170806857
 40
-0.5262507170806857
 40
-0.5262507170806857
 40
-0.5145170103963779
 40
-0.5145170103963779
 40
-0.2542829628112115
 40
-0.2542829628112115
 40
-0.0317448945959232
 40
-0.0317448945959232
 40
-0.0317448945959232
 40
-0.0317448945959232
 10
2128.44245272392
 20
1569.072474681615
 30
0.0
 41
1.0
 10
2128.44492940189
 20
1569.076911419581
 30
0.0
 41
1.0
 10
2128.44742073931
 20
1569.081280356122
 30
0.0
 41
1.0
 10
2128.505479596649
 20
1569.180928347216
 30
0.0
 41
1.0
 10
2128.564593665469
 20
1569.241056807411
 30
0.0
 41
1.0
 10
2128.668149906382
 20
1569.308875501937
 30
0.0
 41
1.0
 10
2128.713751126565
 20
1569.323351318564
 30
0.0
 41
1.0
 10
2128.757272059868
 20
1569.326479975012
 30
0.0
 41
1.0
  0
SPLINE
  5
13D
330
1F
100
AcDbEntity
  8
Table_Miura_9590-71_2D
100
AcDbSpline
210
0.0
220
0.0
230
1.0
 70
    12
 71
     3
 72
    18
 73
    14
 74
     0
 42
0.0000000001
 43
0.0000000001
 40
-17.08061118246446
 40
-17.08061118246446
 40
-17.08061118246446
 40
-17.08061118246446
 40
-15.57895392647034
 40
-15.57895392647034
 40
-15.57895392647034
 40
-11.24807156559795
 40
-11.24807156559795
 40
-11.24807156559795
 40
-8.873594413233326
 40
-6.279800604855796
 40
-3.187801552011507
 40
-1.394045745757029
 40
0.0
 40
0.0
 40
0.0
 40
0.0
 10
2127.80949407565
 20
1569.326568351597
 30
0.0
 41
1.0
 10
2128.363343214271
 20
1569.307880914227
 30
0.0
 41
0.8207490813200228
 10
2128.755530384973
 20
1568.916195506313
 30
0.0
 41
0.8207490813200228
 10
2128.77515585582
 20
1568.362142035463
 30
0.0
 41
1.0
 10
2128.826571276744
 20
1566.919103747433
 30
0.0
 41
0.9999156577956789
 10
2128.90094600956
 20
1565.476983608368
 30
0.0
 41
0.9999156577956789
 10
2128.998261235482
 20
1564.036146513042
 30
0.0
 41
1.0
 10
2129.051503178253
 20
1563.245798378418
 30
0.0
 41
1.0
 10
2129.175577983378
 20
1561.59431460943
 30
0.0
 41
1.0
 10
2129.415689277058
 20
1558.918250625158
 30
0.0
 41
1.0
 10
2129.666729224235
 20
1556.437710625652
 30
0.0
 41
1.0
 10
2129.890710736405
 20
1554.356457771117
 30
0.0
 41
1.0
 10
2130.008932737512
 20
1553.298316896785
 30
0.0
 41
1.0
 10
2130.062700538429
 20
1552.836753993548
 30
0.0
 41
1.0
  0
SPLINE
  5
13E
330
1F
100
AcDbEntity
  8
Table_Miura_9590-71_2D
100
AcDbSpline
210
0.0
220
0.0
230
1.0
 70
     8
 71
     3
 72
    16
 73
    12
 74
     0
 42
0.0000000001
 43
0.0000000001
 40
-33.3642801434906
 40
-33.3642801434906
 40
-33.3642801434906
 40
-33.3642801434906
 40
-24.17426881783292
 40
-19.70973193739507
 40
-17.41415730793448
 40
-12.69286067967022
 40
-10.39643749466709
 40
-6.695123544693319
 40
-3.023047667395003
 40
-1.441026840298903
 40
0.0
 40
0.0
 40
0.0
 40
0.0
 10
2130.062700538428
 20
1552.836753993548
 30
0.0
 10
2130.417159746291
 20
1549.793943644719
 30
0.0
 10
2131.02628287053
 20
1545.282898748593
 30
0.0
 10
2131.830401613469
 20
1540.027346293717
 30
0.0
 10
2132.427911158673
 20
1536.247117220129
 30
0.0
 10
2132.921698325824
 20
1533.182226146637
 30
0.0
 10
2133.477125907764
 20
1529.652619070761
 30
0.0
 10
2133.95502938632
 20
1526.464947418718
 30
0.0
 10
2134.33956377989
 20
1523.504374625475
 30
0.0
 10
2134.566575228999
 20
1521.2840841956
 30
0.0
 10
2134.647215263515
 20
1520.279587672298
 30
0.0
 10
2134.679552975437
 20
1519.800111090727
 30
0.0
  0
SPLINE
  5
13F
330
1F
100
AcDbEntity
  8
Table_Miura_9590-71_2D
100
AcDbSpline
210
0.0
220
0.0
230
1.0
 70
     8
 71
     3
 72
    12
 73
     8
 74
     0
 42
0.0000000001
 43
0.0000000001
 40
-2.866008512548971
 40
-2.866008512548971
 40
-2.866008512548971
 40
-2.866008512548971
 40
-2.1803500891602
 40
-1.316467333291305
 40
-0.6436630852735566
 40
-0.3236325452860642
 40
0.0
 40
0.0
 40
0.0
 40
0.0
 10
2134.679552975437
 20
1519.800111090727
 30
0.0
 10
2134.695091619912
 20
1519.57186377647
 30
0.0
 10
2134.722690997226
 20
1519.056081194263
 30
0.0
 10
2134.754436906234
 20
1518.315962097246
 30
0.0
 10
2134.771846893735
 20
1517.697283172198
 30
0.0
 10
2134.777688781078
 20
1517.258488676369
 30
0.0
 10
2134.778913657106
 20
1517.043941266724
 30
0.0
 10
2134.778915850008
 20
1516.936050913191
 30
0.0
  0
SPLINE
  5
140
330
1F
100
AcDbEntity
  8
Table_Miura_9590-71_2D
100
AcDbSpline
210
0.0
220
0.0
230
1.0
 70
     8
 71
     3
 72
    13
 73
     9
 74
     0
 42
0.0000000001
 43
0.0000000001
 40
-8.067492795701002
 40
-8.067492795701002
 40
-8.067492795701002
 40
-8.067492795701002
 40
-6.929436622567084
 40
-5.933962300934526
 40
-4.0143213514352
 40
-2.037649979843423
 40
-1.015652899145925
 40
0.0
 40
0.0
 40
0.0
 40
0.0
 10
2134.778915850008
 20
1516.936050913191
 30
0.0
 10
2134.77956914405
 20
1516.556707932125
 30
0.0
 10
2134.765881562868
 20
1515.845330320535
 30
0.0
 10
2134.647255914346
 20
1514.498549650766
 30
0.0
 10
2134.302480520374
 20
1512.89865673685
 30
0.0
 10
2133.680061642026
 20
1511.375149018429
 30
0.0
 10
2133.024966216961
 20
1510.20752979136
 30
0.0
 10
2132.644929865962
 20
1509.643600197511
 30
0.0
 10
2132.444793522533
 20
1509.37065689505
 30
0.0
  0
SPLINE
  5
141
330
1F
100
AcDbEntity
  8
Table_Miura_9590-71_2D
100
AcDbSpline
210
0.0
220
0.0
230
1.0
 70
     8
 71
     3
 72
    13
 73
     9
 74
     0
 42
0.0000000001
 43
0.0000000001
 40
0.0
 40
0.0
 40
0.0
 40
0.0
 40
0.0787536068012881
 40
0.1449423458634473
 40
0.266120321626831
 40
0.3853723078620238
 40
0.4472243187928732
 40
0.5284135023430945
 40
0.5284135023430945
 40
0.5284135023430945
 40
0.5284135023430945
 10
2381.093781179638
 20
1201.621842528102
 30
0.0
 10
2381.067592530298
 20
1201.621279268963
 30
0.0
 10
2381.019072695587
 20
1201.616786248667
 30
0.0
 10
2380.934441811307
 20
1201.589229831096
 30
0.0
 10
2380.857242928538
 20
1201.512274511417
 30
0.0
 10
2380.852366169213
 20
1201.404805288123
 30
0.0
 10
2380.891647265445
 20
1201.325768915802
 30
0.0
 10
2380.922192083544
 20
1201.2889479028
 30
0.0
 10
2380.940126064495
 20
1201.268656231658
 30
0.0
  0
SPLINE
  5
142
330
1F
100
AcDbEntity
  8
Table_Miura_9590-71_2D
100
AcDbSpline
210
0.0
220
0.0
230
1.0
 70
    24
 71
     2
 72
     6
 73
     3
 74
     0
 42
0.0000000001
 43
0.0000000001
 40
0.0
 40
0.0
 40
0.0
 40
0.524413613475097
 40
0.524413613475097
 40
0.524413613475097
 10
2380.940126064495
 20
1201.268656231658
 30
0.0
 10
2381.111880525656
 20
1201.070331356705
 30
0.0
 10
2381.283634986818
 20
1200.872006481751
 30
0.0
  0
SPLINE
  5
143
330
1F
100
AcDbEntity
  8
Table_Miura_9590-71_2D
100
AcDbSpline
210
0.0
220
0.0
230
1.0
 70
     8
 71
     3
 72
    12
 73
     8
 74
     0
 42
0.0000000001
 43
0.0000000001
 40
0.0
 40
0.0
 40
0.0
 40
0.0
 40
0.2152508561583033
 40
0.4345163837059823
 40
1.014949707012151
 40
1.738429140534348
 40
2.240363334908873
 40
2.240363334908873
 40
2.240363334908873
 40
2.240363334908873
 10
2381.283634986818
 20
1200.872006481751
 30
0.0
 10
2381.330674126871
 20
1200.817457747346
 30
0.0
 10
2381.426512452647
 20
1200.708801734468
 30
0.0
 10
2381.662868740168
 20
1200.46661774984
 30
0.0
 10
2382.034874268062
 20
1200.120867503923
 30
0.0
 10
2382.488675876199
 20
1199.725362243274
 30
0.0
 10
2382.806887846833
 20
1199.468960708913
 30
0.0
 10
2382.943528296714
 20
1199.372199305607
 30
0.0
  0
SPLINE
  5
144
330
1F
100
AcDbEntity
  8
Table_Miura_9590-71_2D
100
AcDbSpline
210
0.0
220
0.0
230
1.0
 70
     8
 71
     3
 72
    12
 73
     8
 74
     0
 42
0.0000000001
 43
0.0000000001
 40
0.0
 40
0.0
 40
0.0
 40
0.0
 40
2.849423647238892
 40
5.573258475154479
 40
11.17057419198277
 40
16.6544972940824
 40
22.23406149512204
 40
22.23406149512204
 40
22.23406149512204
 40
22.23406149512204
 10
2382.943528296714
 20
1199.372199305607
 30
0.0
 10
2383.715759064493
 20
1198.819111549655
 30
0.0
 10
2385.268221032505
 20
1197.796245680312
 30
0.0
 10
2388.524654977518
 20
1195.98545508058
 30
0.0
 10
2392.786980713332
 20
1194.215127720442
 30
0.0
 10
2398.19562978266
 20
1192.886296403376
 30
0.0
 10
2401.87987074767
 20
1192.559082541703
 30
0.0
 10
2403.739590329586
 20
1192.537360471041
 30
0.0
  0
SPLINE
  5
145
330
1F
100
AcDbEntity
  8
Table_Miura_9590-71_2D
100
AcDbSpline
210
0.0
220
0.0
230
1.0
 70
     8
 71
     5
 72
    12
 73
     6
 74
     0
 42
0.0000000001
 43
0.0000000001
 40
-1.0
 40
-1.0
 40
-1.0
 40
-1.0
 40
-1.0
 40
-1.0
 40
0.0
 40
0.0
 40
0.0
 40
0.0
 40
0.0
 40
0.0
 10
2403.739590329586
 20
1192.537360471041
 30
0.0
 10
2403.822360553687
 20
1192.536393690525
 30
0.0
 10
2403.905133540716
 20
1192.535663456157
 30
0.0
 10
2403.987911071458
 20
1192.535223088694
 30
0.0
 10
2404.070686927411
 20
1192.534978447507
 30
0.0
 10
2404.153462797319
 20
1192.534973630727
 30
0.0
  0
SPLINE
  5
146
330
1F
100
AcDbEntity
  8
Table_Miura_9590-71_2D
100
AcDbSpline
210
0.0
220
0.0
230
1.0
 70
     8
 71
     3
 72
    12
 73
     8
 74
     0
 42
0.0000000001
 43
0.0000000001
 40
0.0
 40
0.0
 40
0.0
 40
0.0
 40
2.782398956976484
 40
5.60255636646087
 40
11.31396921066574
 40
16.96595331393149
 40
22.64829073387322
 40
22.64829073387322
 40
22.64829073387322
 40
22.64829073387322
 10
2404.153462797319
 20
1192.534973630727
 30
0.0
 10
2405.080934963774
 20
1192.53491966053
 30
0.0
 10
2406.94841687292
 20
1192.607561446681
 30
0.0
 10
2410.697308340946
 20
1193.043278726751
 30
0.0
 10
2415.311483042537
 20
1194.13952789247
 30
0.0
 10
2420.582703738991
 20
1196.305948610079
 30
0.0
 10
2423.823489364334
 20
1198.269857831581
 30
0.0
 10
2425.363757724023
 20
1199.372257409585
 30
0.0
  0
SPLINE
  5
147
330
1F
100
AcDbEntity
  8
Table_Miura_9590-71_2D
100
AcDbSpline
210
0.0
220
0.0
230
1.0
 70
     8
 71
     3
 72
    16
 73
    12
 74
     0
 42
0.0000000001
 43
0.0000000001
 40
0.0
 40
0.0
 40
0.0
 40
0.0
 40
0.1449268675943032
 40
0.2673386247060249
 40
0.5163843678365243
 40
0.7646474073394522
 40
0.9969847930951103
 40
1.194773719318494
 40
1.376962800151374
 40
1.556234553971886
 40
1.789638013214852
 40
1.789638013214852
 40
1.789638013214852
 40
1.789638013214852
 10
2425.363757724023
 20
1199.372257409585
 30
0.0
 10
2425.403132484547
 20
1199.400349119855
 30
0.0
 10
2425.475243208552
 20
1199.452787661397
 30
0.0
 10
2425.605814755043
 20
1199.565209053563
 30
0.0
 10
2425.74420469368
 20
1199.719562414151
 30
0.0
 10
2425.874064941227
 20
1199.926322449171
 30
0.0
 10
2425.956204374864
 20
1200.1383708369
 30
0.0
 10
2425.983188991238
 20
1200.34245565207
 30
0.0
 10
2425.953820183262
 20
1200.528776148702
 30
0.0
 10
2425.865285633751
 20
1200.70833939541
 30
0.0
 10
2425.775519868661
 20
1200.813471861016
 30
0.0
 10
2425.724492347264
 20
1200.872178708283
 30
0.0
  0
SPLINE
  5
148
330
1F
100
AcDbEntity
  8
Table_Miura_9590-71_2D
100
AcDbSpline
210
0.0
220
0.0
230
1.0
 70
    24
 71
     2
 72
     6
 73
     3
 74
     0
 42
0.0000000001
 43
0.0000000001
 40
0.0
 40
0.0
 40
0.0
 40
0.5244495011186676
 40
0.5244495011186676
 40
0.5244495011186676
 10
2425.724492347264
 20
1200.872178708283
 30
0.0
 10
2425.552743981599
 20
1201.070497388602
 30
0.0
 10
2425.380995615934
 20
1201.268816068921
 30
0.0
  0
SPLINE
  5
149
330
1F
100
AcDbEntity
  8
Table_Miura_9590-71_2D
100
AcDbSpline
210
0.0
220
0.0
230
1.0
 70
     8
 71
     3
 72
    12
 73
     8
 74
     0
 42
0.0000000001
 43
0.0000000001
 40
0.0
 40
0.0
 40
0.0
 40
0.0
 40
0.089002379783791
 40
0.1797960093880787
 40
0.4111935266141908
 40
0.6556287843907624
 40
0.8529822444616082
 40
0.8529822444616082
 40
0.8529822444616082
 40
0.8529822444616082
 10
2425.380995615934
 20
1201.268816068921
 30
0.0
 10
2425.3616836541
 20
1201.291543873775
 30
0.0
 10
2425.320889976845
 20
1201.335671933763
 30
0.0
 10
2425.212213335646
 20
1201.419924451266
 30
0.0
 10
2425.045692153612
 20
1201.510181629876
 30
0.0
 10
2424.836185172088
 20
1201.59198197888
 30
0.0
 10
2424.690665810183
 20
1201.619830827364
 30
0.0
 10
2424.62477556121
 20
1201.621614558634
 30
0.0
  0
SPLINE
  5
14A
330
1F
100
AcDbEntity
  8
Table_Miura_9590-71_2D
100
AcDbSpline
210
0.0
220
0.0
230
1.0
 70
    12
 71
     3
 72
    15
 73
    11
 74
     0
 42
0.0000000001
 43
0.0000000001
 40
-2.500401592028198
 40
-2.500401592028198
 40
-2.500401592028198
 40
-2.500401592028198
 40
-2.092447594524908
 40
-1.587472916212024
 40
-0.9787609925742227
 40
-0.6090244151814629
 40
0.0
 40
0.0
 40
0.0
 40
0.3719149623461165
 40
0.3719149623461165
 40
0.3719149623461165
 40
0.3719149623461165
 10
2132.315119903221
 20
1572.671168772702
 30
0.0
 41
1.0
 10
2132.33442229621
 20
1572.536553541411
 30
0.0
 41
1.0
 10
2132.368173876638
 20
1572.234039835535
 30
0.0
 41
1.0
 10
2132.404224621184
 20
1571.728044750475
 30
0.0
 41
1.0
 10
2132.427315884371
 20
1571.234093697717
 30
0.0
 41
1.0
 10
2132.44738803621
 20
1570.705317430035
 30
0.0
 41
1.0
 10
2132.458532309416
 20
1570.37470955334
 30
0.0
 41
1.0
 10
2132.465568752615
 20
1570.171823968212
 30
0.0
 41
1.0
 10
2132.469865734945
 20
1570.04792674488
 30
0.0
 41
0.9999990251576337
 10
2132.473926970341
 20
1569.918083183677
 30
0.0
 41
0.9999990251576337
 10
2132.479328121417
 20
1569.794229182638
 30
0.0
 41
1.0
  0
SPLINE
  5
14B
330
1F
100
AcDbEntity
  8
Table_Miura_9590-71_2D
100
AcDbSpline
210
0.0
220
0.0
230
1.0
 70
    12
 71
     2
 72
     6
 73
     3
 74
     0
 42
0.0000000001
 43
0.0000000001
 40
-0.8893486808566594
 40
-0.8893486808566594
 40
-0.8893486808566594
 40
0.0
 40
0.0
 40
0.0
 10
2132.479328121417
 20
1569.794229182638
 30
0.0
 41
1.0
 10
2132.503599425829
 20
1569.237662976683
 30
0.0
 41
0.9999953443438412
 10
2132.523535714646
 20
1568.793434385886
 30
0.0
 41
1.0
  0
SPLINE
  5
14C
330
1F
100
AcDbEntity
  8
Table_Miura_9590-71_2D
100
AcDbSpline
210
0.0
220
0.0
230
1.0
 70
     8
 71
     3
 72
    16
 73
    12
 74
     0
 42
0.0000000001
 43
0.0000000001
 40
-44.0809111380504
 40
-44.0809111380504
 40
-44.0809111380504
 40
-44.0809111380504
 40
-41.32262018863005
 40
-38.57568005800471
 40
-32.83955618066763
 40
-27.18774927002762
 40
-21.55559266881473
 40
-10.57964571019579
 40
-5.268782545111494
 40
-2.760660175474777
 40
0.0
 40
0.0
 40
0.0
 40
0.0
 10
2132.523535714646
 20
1568.793434385886
 30
0.0
 10
2132.564755973937
 20
1567.874947607072
 30
0.0
 10
2132.674041661387
 20
1566.042846062564
 30
0.0
 10
2133.02613706368
 20
1562.311794602202
 30
0.0
 10
2133.683495215047
 20
1557.644124281983
 30
0.0
 10
2134.816432351344
 20
1552.082122252903
 30
0.0
 10
2136.746531268018
 20
1544.914209675954
 30
0.0
 10
2139.302809193389
 20
1538.053456723503
 30
0.0
 10
2142.069819511918
 20
1532.428076195787
 30
0.0
 10
2143.790084167414
 20
1529.349134350888
 30
0.0
 10
2144.723139945208
 20
1527.827193115499
 30
0.0
 10
2145.206926128993
 20
1527.044574212188
 30
0.0
  0
SPLINE
  5
14D
330
1F
100
AcDbEntity
  8
Table_Miura_9590-71_2D
100
AcDbSpline
210
0.0
220
0.0
230
1.0
 70
     8
 71
     3
 72
    18
 73
    14
 74
     0
 42
0.0000000001
 43
0.0000000001
 40
-23.989786789493
 40
-23.989786789493
 40
-23.989786789493
 40
-23.989786789493
 40
-22.58263901442267
 40
-21.34373030388689
 40
-18.62944873608983
 40
-13.20000755298573
 40
-11.39409917538949
 40
-8.514888277655798
 40
-6.682465050476555
 40
-5.425659454196719
 40
-3.282334438373458
 40
-1.290606615411304
 40
0.0
 40
0.0
 40
0.0
 40
0.0
 10
2145.206926128993
 20
1527.044574212188
 30
0.0
 10
2145.453554932998
 20
1526.645603818684
 30
0.0
 10
2145.918787869457
 20
1525.896231497215
 30
0.0
 10
2146.885166543787
 20
1524.393274295417
 30
0.0
 10
2148.63055861199
 20
1521.797723285691
 30
0.0
 10
2150.591099417386
 20
1519.121227583889
 30
0.0
 10
2152.678482196528
 20
1516.473428840123
 30
0.0
 10
2154.064563414257
 20
1514.800242136316
 30
0.0
 10
2155.35914974678
 20
1513.289611414279
 30
0.0
 10
2156.504240314532
 20
1511.973919015226
 30
0.0
 10
2157.685013527859
 20
1510.618952771772
 30
0.0
 10
2158.867642764074
 20
1509.250619320495
 30
0.0
 10
2159.597774175463
 20
1508.406026799898
 30
0.0
 10
2159.879410177635
 20
1508.08082155636
 30
0.0
  0
SPLINE
  5
14E
330
1F
100
AcDbEntity
  8
Table_Miura_9590-71_2D
100
AcDbSpline
210
0.0
220
0.0
230
1.0
 70
    24
 71
     2
 72
     6
 73
     3
 74
     0
 42
0.0000000001
 43
0.0000000001
 40
-405.407916564433
 40
-405.407916564433
 40
-405.407916564433
 40
0.0
 40
0.0
 40
0.0
 10
2159.879410177634
 20
1508.08082155636
 30
0.0
 10
2292.580300486696
 20
1354.851031977242
 30
0.0
 10
2425.281190795758
 20
1201.621242398124
 30
0.0
  0
POLYLINE
  5
14F
330
1F
100
AcDbEntity
  8
Table_Miura_9590-71_2D
100
AcDb2dPolyline
 66
     1
 10
0.0
 20
0.0
 30
0.0
  0
VERTEX
  5
150
330
14F
100
AcDbEntity
  8
Table_Miura_9590-71_2D
100
AcDbVertex
100
AcDb2dVertex
 10
2425.281190795758
 20
1201.621242398124
 30
0.0
  0
VERTEX
  5
151
330
14F
100
AcDbEntity
  8
Table_Miura_9590-71_2D
100
AcDbVertex
100
AcDb2dVertex
 10
2380.612756683695
 20
1201.621566130814
 30
0.0
  0
SEQEND
  5
152
330
14F
100
AcDbEntity
  8
Table_Miura_9590-71_2D
  0
SPLINE
  5
153
330
1F
100
AcDbEntity
  8
Table_Miura_9590-71_2D
100
AcDbSpline
210
0.0
220
0.0
230
1.0
 70
    24
 71
     2
 72
     6
 73
     3
 74
     0
 42
0.0000000001
 43
0.0000000001
 40
-379.0828237665147
 40
-379.0828237665147
 40
-379.0828237665147
 40
0.0
 40
0.0
 40
0.0
 10
2380.612756683695
 20
1201.621566130814
 30
0.0
 10
2256.528775687495
 20
1344.90140588098
 30
0.0
 10
2132.444794691295
 20
1488.181245631147
 30
0.0
  0
SPLINE
  5
154
330
1F
100
AcDbEntity
  8
Table_Miura_9590-71_2D
100
AcDbSpline
210
0.0
220
0.0
230
1.0
 70
    12
 71
     2
 72
     6
 73
     3
 74
     0
 42
0.0000000001
 43
0.0000000001
 40
0.0
 40
0.0
 40
0.0
 40
3.028274426341321
 40
3.028274426341321
 40
3.028274426341321
 10
2082.240593374361
 20
1519.964725571642
 30
0.0
 41
1.0
 10
2082.188238371642
 20
1518.451357101824
 30
0.0
 41
0.999864696217075
 10
2082.185693570212
 20
1516.937085430117
 30
0.0
 41
1.0
  0
SPLINE
  5
155
330
1F
100
AcDbEntity
  8
Table_Miura_9590-71_2D
100
AcDbSpline
210
0.0
220
0.0
230
1.0
 70
     8
 71
     3
 72
     8
 73
     4
 74
     0
 42
0.0000000001
 43
0.0000000001
 40
-17.56166272600342
 40
-17.56166272600342
 40
-17.56166272600342
 40
-17.56166272600342
 40
0.0
 40
0.0
 40
0.0
 40
0.0
 10
2082.185693570212
 20
1516.937085430117
 30
0.0
 10
2082.185693581325
 20
1511.083197854783
 30
0.0
 10
2082.185692408926
 20
1505.137556543959
 30
0.0
 10
2082.185692408926
 20
1499.283668968625
 30
0.0
  0
SPLINE
  5
156
330
1F
100
AcDbEntity
  8
Table_Miura_9590-71_2D
100
AcDbSpline
210
0.0
220
0.0
230
1.0
 70
    24
 71
     2
 72
     6
 73
     3
 74
     0
 42
0.0000000001
 43
0.0000000001
 40
-297.6614457198009
 40
-297.6614457198009
 40
-297.6614457198009
 40
0.0
 40
0.0
 40
0.0
 10
2082.185692408926
 20
1499.283668968625
 30
0.0
 10
2082.185692408926
 20
1350.452946108725
 30
0.0
 10
2082.185692408926
 20
1201.622223248824
 30
0.0
  0
POLYLINE
  5
157
330
1F
100
AcDbEntity
  8
Table_Miura_9590-71_2D
100
AcDb2dPolyline
 66
     1
 10
0.0
 20
0.0
 30
0.0
  0
VERTEX
  5
158
330
157
100
AcDbEntity
  8
Table_Miura_9590-71_2D
100
AcDbVertex
100
AcDb2dVertex
 10
2082.185692408926
 20
1201.622223248824
 30
0.0
  0
VERTEX
  5
159
330
157
100
AcDbEntity
  8
Table_Miura_9590-71_2D
100
AcDbVertex
100
AcDb2dVertex
 10
2132.444794691295
 20
1201.622223248824
 30
0.0
  0
SEQEND
  5
15A
330
157
100
AcDbEntity
  8
Table_Miura_9590-71_2D
  0
SPLINE
  5
15B
330
1F
100
AcDbEntity
  8
Table_Miura_9590-71_2D
100
AcDbSpline
210
0.0
220
0.0
230
1.0
 70
    24
 71
     2
 72
     6
 73
     3
 74
     0
 42
0.0000000001
 43
0.0000000001
 40
0.0
 40
0.0
 40
0.0
 40
297.6614457198009
 40
297.6614457198009
 40
297.6614457198009
 10
2132.444794691295
 20
1201.622223248824
 30
0.0
 10
2132.444794691295
 20
1350.452946108725
 30
0.0
 10
2132.444794691295
 20
1499.283668968625
 30
0.0
  0
SPLINE
  5
15C
330
1F
100
AcDbEntity
  8
Table_Miura_9590-71_2D
100
AcDbSpline
210
0.0
220
0.0
230
1.0
 70
     8
 71
     3
 72
     8
 73
     4
 74
     0
 42
0.0000000001
 43
0.0000000001
 40
0.0
 40
0.0
 40
0.0
 40
0.0
 40
17.56166272600342
 40
17.56166272600342
 40
17.56166272600342
 40
17.56166272600342
 10
2132.444794691295
 20
1499.283668968625
 30
0.0
 10
2132.444794691295
 20
1505.137556543959
 30
0.0
 10
2132.444793518896
 20
1511.083197854783
 30
0.0
 10
2132.44479353001
 20
1516.937085430117
 30
0.0
  0
SPLINE
  5
15D
330
1F
100
AcDbEntity
  8
Table_Miura_9590-71_2D
100
AcDbSpline
210
0.0
220
0.0
230
1.0
 70
    12
 71
     2
 72
     6
 73
     3
 74
     0
 42
0.0000000001
 43
0.0000000001
 40
-3.028274426341321
 40
-3.028274426341321
 40
-3.028274426341321
 40
0.0
 40
0.0
 40
0.0
 10
2132.44479353001
 20
1516.937085430117
 30
0.0
 41
1.0
 10
2132.442248728579
 20
1518.451357101824
 30
0.0
 41
0.999864696217075
 10
2132.38989372586
 20
1519.964725571642
 30
0.0
 41
1.0
  0
SPLINE
  5
15E
330
1F
100
AcDbEntity
  8
Table_Miura_9590-71_2D
 62
     9
100
AcDbSpline
210
0.0
220
0.0
230
1.0
 70
    24
 71
     2
 72
     6
 73
     3
 74
     0
 42
0.0000000001
 43
0.0000000001
 40
0.0
 40
0.0
 40
0.0
 40
203.6334854806771
 40
203.6334854806771
 40
203.6334854806771
 10
-25.13000115975137
 20
137.7259695286505
 30
0.0
 10
-25.12999011959596
 20
239.5427123514715
 30
0.0
 10
-25.12997907944055
 20
341.3594551742924
 30
0.0
  0
SPLINE
  5
15F
330
1F
100
AcDbEntity
  8
Table_Miura_9590-71_2D
 62
     9
100
AcDbSpline
210
0.0
220
0.0
230
1.0
 70
    24
 71
     2
 72
     6
 73
     3
 74
     0
 42
0.0000000001
 43
0.0000000001
 40
0.0
 40
0.0
 40
0.0
 40
0.0064177164454542
 40
0.0064177164454542
 40
0.0064177164454542
 10
-25.12997907944055
 20
341.3594551742924
 30
0.0
 10
-25.12998953766123
 20
341.3626640429804
 30
0.0
 10
-25.12999999588192
 20
341.3658729116685
 30
0.0
  0
SPLINE
  5
160
330
1F
100
AcDbEntity
  8
Table_Miura_9590-71_2D
 62
     9
100
AcDbSpline
210
0.0
220
0.0
230
1.0
 70
     8
 71
     3
 72
    12
 73
     8
 74
     0
 42
0.0000000001
 43
0.0000000001
 40
0.0
 40
0.0
 40
0.0
 40
0.0
 40
1.091200619832775
 40
2.10847507651029
 40
4.196394565958102
 40
6.382145182392427
 40
8.114214885926131
 40
8.114214885926131
 40
8.114214885926131
 40
8.114214885926131
 10
-25.12999999588192
 20
341.3658729116685
 30
0.0
 10
-25.12499798542376
 20
341.7295153390752
 30
0.0
 10
-25.10994835639485
 20
342.4325571405516
 30
0.0
 10
-24.982862653952
 20
343.8262609916644
 30
0.0
 10
-24.68109557694243
 20
345.566533211412
 30
0.0
 10
-24.106175284701
 20
347.4880488463018
 30
0.0
 10
-23.60677622960444
 20
348.6961740301502
 30
0.0
 10
-23.3627677710456
 20
349.2193881818079
 30
0.0
  0
SPLINE
  5
161
330
1F
100
AcDbEntity
  8
Table_Miura_9590-71_2D
 62
     9
100
AcDbSpline
210
0.0
220
0.0
230
1.0
 70
    24
 71
     2
 72
     6
 73
     3
 74
     0
 42
0.0000000001
 43
0.0000000001
 40
0.0
 40
0.0
 40
0.0
 40
203.633708102275
 40
203.633708102275
 40
203.633708102275
 10
-106.7089949968013
 20
-90.62609285499516
 30
0.0
 10
-194.8849827300087
 20
-141.5345103607498
 30
0.0
 10
-283.0609704632161
 20
-192.4429278665045
 30
0.0
  0
SPLINE
  5
162
330
1F
100
AcDbEntity
  8
Table_Miura_9590-71_2D
 62
     9
100
AcDbSpline
210
0.0
220
0.0
230
1.0
 70
    24
 71
     2
 72
     6
 73
     3
 74
     0
 42
0.0000000001
 43
0.0000000001
 40
0.0
 40
0.0
 40
0.0
 40
0.006417716462647
 40
0.006417716462647
 40
0.006417716462647
 10
-283.0609704632161
 20
-192.4429278665045
 30
0.0
 10
-283.0637441959143
 20
-192.4445413579377
 30
0.0
 10
-283.0665179286125
 20
-192.4461548493709
 30
0.0
  0
SPLINE
  5
163
330
1F
100
AcDbEntity
  8
Table_Miura_9590-71_2D
 62
     9
100
AcDbSpline
210
0.0
220
0.0
230
1.0
 70
     8
 71
     3
 72
    12
 73
     8
 74
     0
 42
0.0000000001
 43
0.0000000001
 40
0.0
 40
0.0
 40
0.0
 40
0.0
 40
1.091200619832687
 40
2.108475076510281
 40
4.196394565958211
 40
6.382145182392561
 40
8.11421488592736
 40
8.11421488592736
 40
8.11421488592736
 40
8.11421488592736
 10
-283.0665179286125
 20
-192.4461548493709
 30
0.0
 10
-283.3839425138713
 20
-192.6236441949457
 30
0.0
 10
-284.0003193883867
 20
-192.9621317346286
 30
0.0
 10
-285.2708451800208
 20
-193.5489242134122
 30
0.0
 10
-286.928848670329
 20
-194.1577223685699
 30
0.0
 10
-288.8803901700337
 20
-194.620584607783
 30
0.0
 10
-290.1763567977472
 20
-194.792154931367
 30
0.0
 10
-290.7514777739822
 20
-194.8424444833454
 30
0.0
  0
SPLINE
  5
164
330
1F
100
AcDbEntity
  8
Table_Miura_9590-71_2D
 62
     9
100
AcDbSpline
210
0.0
220
0.0
230
1.0
 70
     8
 71
     3
 72
    12
 73
     8
 74
     0
 42
0.0000000001
 43
0.0000000001
 40
28.42424652247416
 40
28.42424652247416
 40
28.42424652247416
 40
28.42424652247416
 40
30.15633428733689
 40
32.34208490377012
 40
34.43000439321897
 40
35.44727884989555
 40
36.5384794697283
 40
36.5384794697283
 40
36.5384794697283
 40
36.5384794697283
 10
23.36280269583567
 20
349.2193858453385
 30
0.0
 10
23.60683867629397
 20
348.6961186907005
 30
0.0
 10
24.10629748296894
 20
347.4878523241223
 30
0.0
 10
24.68094294103048
 20
345.5666967443788
 30
0.0
 10
24.98298817113027
 20
343.8262030788999
 30
0.0
 10
25.1099188327953
 20
342.4325553964306
 30
0.0
 10
25.12501452843844
 20
341.7295163163628
 30
0.0
 10
25.12999999588374
 20
341.3658729116687
 30
0.0
  0
SPLINE
  5
165
330
1F
100
AcDbEntity
  8
Table_Miura_9590-71_2D
 62
     9
100
AcDbSpline
210
0.0
220
0.0
230
1.0
 70
    24
 71
     2
 72
     6
 73
     3
 74
     0
 42
0.0000000001
 43
0.0000000001
 40
0.0
 40
0.0
 40
0.0
 40
0.0064177164451132
 40
0.0064177164451132
 40
0.0064177164451132
 10
25.12999999588374
 20
341.3658729116687
 30
0.0
 10
25.12998953766282
 20
341.3626640429807
 30
0.0
 10
25.12997907944191
 20
341.3594551742927
 30
0.0
  0
SPLINE
  5
166
330
1F
100
AcDbEntity
  8
Table_Miura_9590-71_2D
 62
     9
100
AcDbSpline
210
0.0
220
0.0
230
1.0
 70
    24
 71
     2
 72
     6
 73
     3
 74
     0
 42
0.0000000001
 43
0.0000000001
 40
0.0
 40
0.0
 40
0.0
 40
203.6333458706113
 40
203.6333458706113
 40
203.6333458706113
 10
25.12997907944191
 20
341.3594551742927
 30
0.0
 10
25.12999011959755
 20
239.5427821565047
 30
0.0
 10
25.13000115975319
 20
137.7261091387166
 30
0.0
  0
SPLINE
  5
167
330
1F
100
AcDbEntity
  8
Table_Miura_9590-71_2D
 62
     9
100
AcDbSpline
210
0.0
220
0.0
230
1.0
 70
     8
 71
     3
 72
    12
 73
     8
 74
     0
 42
0.0000000001
 43
0.0000000001
 40
28.4242465224738
 40
28.4242465224738
 40
28.4242465224738
 40
28.4242465224738
 40
30.1563342873369
 40
32.34208490377009
 40
34.43000439321897
 40
35.44727884989575
 40
36.53847946972826
 40
36.53847946972826
 40
36.53847946972826
 40
36.53847946972826
 10
290.7514582881464
 20
-194.8424735608648
 30
0.0
 10
290.1762776490344
 20
-194.79218134206
 30
0.0
 10
288.8801588777011
 20
-194.6205921734951
 30
0.0
 10
286.9290666119896
 20
-194.1576719484749
 30
0.0
 10
285.2707322675105
 20
-193.5490039580934
 30
0.0
 10
284.0003326397336
 20
-192.9621052943803
 30
0.0
 10
283.3839350887192
 20
-192.6236590102625
 30
0.0
 10
283.0665179286138
 20
-192.4461548493712
 30
0.0
  0
SPLINE
  5
168
330
1F
100
AcDbEntity
  8
Table_Miura_9590-71_2D
 62
     9
100
AcDbSpline
210
0.0
220
0.0
230
1.0
 70
    24
 71
     2
 72
     6
 73
     3
 74
     0
 42
0.0000000001
 43
0.0000000001
 40
0.0
 40
0.0
 40
0.0
 40
0.0064177164707695
 40
0.0064177164707695
 40
0.0064177164707695
 10
283.0665179286138
 20
-192.4461548493712
 30
0.0
 10
283.063744195912
 20
-192.4445413579359
 30
0.0
 10
283.0609704632102
 20
-192.4429278665007
 30
0.0
  0
SPLINE
  5
169
330
1F
100
AcDbEntity
  8
Table_Miura_9590-71_2D
 62
     9
100
AcDbSpline
210
0.0
220
0.0
230
1.0
 70
    24
 71
     2
 72
     6
 73
     3
 74
     0
 42
0.0000000001
 43
0.0000000001
 40
0.0
 40
0.0
 40
0.0
 40
203.6338520885392
 40
203.6338520885392
 40
203.6338520885392
 10
283.0609704632102
 20
-192.4429278665007
 30
0.0
 10
194.8849203821217
 20
-141.5344743641798
 30
0.0
 10
106.7088703010331
 20
-90.62602086185896
 30
0.0
  0
SPLINE
  5
16A
330
1F
100
AcDbEntity
  8
Table_Miura_9590-71_2D
 62
     9
100
AcDbSpline
210
0.0
220
0.0
230
1.0
 70
     8
 71
     3
 72
    12
 73
     8
 74
     0
 42
0.0000000001
 43
0.0000000001
 40
28.42424652247151
 40
28.42424652247151
 40
28.42424652247151
 40
28.42424652247151
 40
30.15633428733683
 40
32.34208490377019
 40
34.43000439321883
 40
35.4472788498954
 40
36.53847946972824
 40
36.53847946972824
 40
36.53847946972824
 40
36.53847946972824
 10
-314.1142609839799
 20
-154.376912284474
 30
0.0
 10
-313.7831163253262
 20
-153.9039373486401
 30
0.0
 10
-312.9864563606687
 20
-152.8672601506263
 30
0.0
 10
-311.6100095530182
 20
-151.409024795902
 30
0.0
 10
-310.253720438639
 20
-150.2771991208055
 30
0.0
 10
-309.1102514725262
 20
-149.4704501020484
 30
0.0
 10
-308.5089496171577
 20
-149.1058573060992
 30
0.0
 10
-308.1965179244958
 20
-148.9197180622959
 30
0.0
  0
SPLINE
  5
16B
330
1F
100
AcDbEntity
  8
Table_Miura_9590-71_2D
 62
     9
100
AcDbSpline
210
0.0
220
0.0
230
1.0
 70
    24
 71
     2
 72
     6
 73
     3
 74
     0
 42
0.0000000001
 43
0.0000000001
 40
0.0
 40
0.0
 40
0.0
 40
0.0064177164832391
 40
0.0064177164832391
 40
0.0064177164832391
 10
-308.1965179244958
 20
-148.9197180622959
 30
0.0
 10
-308.1937337335676
 20
-148.9181226850274
 30
0.0
 10
-308.1909495426394
 20
-148.9165273077588
 30
0.0
  0
SPLINE
  5
16C
330
1F
100
AcDbEntity
  8
Table_Miura_9590-71_2D
 62
     9
100
AcDbSpline
210
0.0
220
0.0
230
1.0
 70
    24
 71
     2
 72
     6
 73
     3
 74
     0
 42
0.0000000001
 43
0.0000000001
 40
0.0
 40
0.0
 40
0.0
 40
203.633334284065
 40
203.633334284065
 40
203.633334284065
 10
-308.1909495426394
 20
-148.9165273077588
 30
0.0
 10
-220.0151347176209
 20
-98.00818413444615
 30
0.0
 10
-131.8393198926024
 20
-47.09984096113351
 30
0.0
  0
SPLINE
  5
16D
330
1F
100
AcDbEntity
  8
Table_Miura_9590-71_2D
 62
     9
100
AcDbSpline
210
0.0
220
0.0
230
1.0
 70
     8
 71
     3
 72
    10
 73
     6
 74
     0
 42
0.0000000001
 43
0.0000000001
 40
29.24666785957017
 40
29.24666785957017
 40
29.24666785957017
 40
29.24666785957017
 40
29.82218011666214
 40
31.76261295261828
 40
33.71577125458813
 40
33.71577125458813
 40
33.71577125458813
 40
33.71577125458813
 10
23.58807256878304
 20
349.2042422887926
 30
0.0
 10
23.66055924108799
 20
349.0266381510218
 30
0.0
 10
23.9659820504966
 20
348.2455323686083
 30
0.0
 10
24.41751075585944
 20
346.8237776946791
 30
0.0
 10
24.68098005059528
 20
345.5512089087209
 30
0.0
 10
24.78034430939442
 20
344.9077780152224
 30
0.0
  0
SPLINE
  5
16E
330
1F
100
AcDbEntity
  8
Table_Miura_9590-71_2D
 62
     9
100
AcDbSpline
210
0.0
220
0.0
230
1.0
 70
     8
 71
     3
 72
    10
 73
     6
 74
     0
 42
0.0000000001
 43
0.0000000001
 40
0.0
 40
0.0
 40
0.0
 40
0.0
 40
1.953155402089815
 40
3.893592821353497
 40
4.469112282817966
 40
4.469112282817966
 40
4.469112282817966
 40
4.469112282817966
 10
-24.78034483744432
 20
344.9077753898437
 30
0.0
 10
-24.68097157609827
 20
345.5511942238919
 30
0.0
 10
-24.41750902597141
 20
346.8237882502723
 30
0.0
 10
-23.96597816342943
 20
348.2455269594153
 30
0.0
 10
-23.66055413191761
 20
349.0266360355011
 30
0.0
 10
-23.58806661198733
 20
349.2042426911626
 30
0.0
  0
SPLINE
  5
16F
330
1F
100
AcDbEntity
  8
Table_Miura_9590-71_2D
 62
     9
100
AcDbSpline
210
0.0
220
0.0
230
1.0
 70
     8
 71
     3
 72
    10
 73
     6
 74
     0
 42
0.0000000001
 43
0.0000000001
 40
29.24666785956805
 40
29.24666785956805
 40
29.24666785956805
 40
29.24666785956805
 40
29.82218011666223
 40
31.76261295261852
 40
33.71577125458879
 40
33.71577125458879
 40
33.71577125458879
 40
33.71577125458879
 10
-314.2137812157808
 20
-154.1742510735219
 30
0.0
 10
-314.0962148568063
 20
-154.022673704984
 30
0.0
 10
-313.5724688108978
 20
-153.3676169019334
 30
0.0
 10
-312.5669574980084
 20
-152.2657042355859
 30
0.0
 10
-311.5966152486717
 20
-151.4012487402476
 30
0.0
 10
-311.0890698787216
 20
-150.9934813211494
 30
0.0
  0
SPLINE
  5
170
330
1F
100
AcDbEntity
  8
Table_Miura_9590-71_2D
 62
     9
100
AcDbSpline
210
0.0
220
0.0
230
1.0
 70
     8
 71
     3
 72
    10
 73
     6
 74
     0
 42
0.0000000001
 43
0.0000000001
 40
0.0
 40
0.0
 40
0.0
 40
0.0
 40
1.953155402088667
 40
3.89359282135179
 40
4.46911228281638
 40
4.46911228281638
 40
4.46911228281638
 40
4.46911228281638
 10
-286.3087230316596
 20
-193.9142958386878
 30
0.0
 10
-286.9156267178905
 20
-194.1499454869296
 30
0.0
 10
-288.1494567485015
 20
-194.5580772387653
 30
0.0
 10
-289.606484019436
 20
-194.8779093957816
 30
0.0
 10
-290.43565633821
 20
-195.0039589636084
 30
0.0
 10
-290.6257119738596
 20
-195.0299862577221
 30
0.0
  0
SPLINE
  5
171
330
1F
100
AcDbEntity
  8
Table_Miura_9590-71_2D
 62
     9
100
AcDbSpline
210
0.0
220
0.0
230
1.0
 70
     8
 71
     3
 72
    10
 73
     6
 74
     0
 42
0.0000000001
 43
0.0000000001
 40
29.24666785956914
 40
29.24666785956914
 40
29.24666785956914
 40
29.24666785956914
 40
29.82218011666199
 40
31.76261295261775
 40
33.71577125458974
 40
33.71577125458974
 40
33.71577125458974
 40
33.71577125458974
 10
290.6257086470006
 20
-195.0299912152711
 30
0.0
 10
290.435655615721
 20
-195.0039644460376
 30
0.0
 10
289.6064867604035
 20
-194.8779154666741
 30
0.0
 10
288.1494467421498
 20
-194.5580734590921
 30
0.0
 10
286.9156351980791
 20
-194.1499601684706
 30
0.0
 10
286.3087255693281
 20
-193.9142966940705
 30
0.0
  0
SPLINE
  5
172
330
1F
100
AcDbEntity
  8
Table_Miura_9590-71_2D
 62
     9
100
AcDbSpline
210
0.0
220
0.0
230
1.0
 70
     8
 71
     3
 72
    10
 73
     6
 74
     0
 42
0.0000000001
 43
0.0000000001
 40
0.0
 40
0.0
 40
0.0
 40
0.0
 40
1.953155402088032
 40
3.893592821351477
 40
4.469112282819414
 40
4.469112282819414
 40
4.469112282819414
 40
4.469112282819414
 10
311.0890678691057
 20
-150.993479551156
 30
0.0
 10
311.5965982939906
 20
-151.4012487369625
 30
0.0
 10
312.5669657744756
 20
-152.2657110115049
 30
0.0
 10
313.5724621828659
 20
-153.3676175636324
 30
0.0
 10
314.0962104701271
 20
-154.0226770718925
 30
0.0
 10
314.2137785858466
 20
-154.1742564334414
 30
0.0
  0
SPLINE
  5
173
330
1F
100
AcDbEntity
  8
Table_Miura_9590-71_2D
 62
     9
100
AcDbSpline
210
0.0
220
0.0
230
1.0
 70
     8
 71
     3
 72
    12
 73
     8
 74
     0
 42
0.0000000001
 43
0.0000000001
 40
0.0
 40
0.0
 40
0.0
 40
0.0
 40
1.09120061983259
 40
2.108475076510266
 40
4.196394565957977
 40
6.382145182392395
 40
8.114214885926136
 40
8.114214885926136
 40
8.114214885926136
 40
8.114214885926136
 10
308.1965179244971
 20
-148.9197180622961
 30
0.0
 10
308.5089404992941
 20
-149.1058711441284
 30
0.0
 10
309.1102677447816
 20
-149.4704254059214
 30
0.0
 10
310.2537078339783
 20
-150.2773367782505
 30
0.0
 10
311.6099442472723
 20
-151.4088108428403
 30
0.0
 10
312.986565454736
 20
-152.8674642385174
 30
0.0
 10
313.7831330273523
 20
-153.9040190987819
 30
0.0
 10
314.114245545028
 20
-154.3769436984612
 30
0.0
  0
SPLINE
  5
174
330
1F
100
AcDbEntity
  8
Table_Miura_9590-71_2D
 62
     9
100
AcDbSpline
210
0.0
220
0.0
230
1.0
 70
    24
 71
     2
 72
     6
 73
     3
 74
     0
 42
0.0000000001
 43
0.0000000001
 40
0.0
 40
0.0
 40
0.0
 40
203.6337242888049
 40
203.6337242888049
 40
203.6337242888049
 10
131.838982138609
 20
-47.09964595877372
 30
0.0
 10
220.0149712892799
 20
-98.00807703097482
 30
0.0
 10
308.1909604399507
 20
-148.9165081031759
 30
0.0
  0
SPLINE
  5
175
330
1F
100
AcDbEntity
  8
Table_Miura_9590-71_2D
100
AcDbSpline
210
0.0
220
0.0
230
1.0
 70
     8
 71
     3
 72
    17
 73
    13
 74
     0
 42
0.0000000001
 43
0.0000000001
 40
8.11421488592736
 40
8.11421488592736
 40
8.11421488592736
 40
8.11421488592736
 40
8.490982845351999
 40
12.81895580244923
 40
17.27666290000628
 40
21.9353699469448
 40
26.72660484100899
 40
31.59160549890699
 40
34.06202637132714
 40
35.29851844026844
 40
35.89107656027871
 40
36.5384794697291
 40
36.5384794697291
 40
36.5384794697291
 40
36.5384794697291
 10
-290.7514777739822
 20
-194.8424444833454
 30
0.0
 10
-290.8765807973745
 20
-194.8533837035399
 30
0.0
 10
-292.440039663252
 20
-194.9748796729043
 30
0.0
 10
-295.5089099694305
 20
-194.8439557456604
 30
0.0
 10
-299.8746461100136
 20
-193.7399671477191
 30
0.0
 10
-304.087874156935
 20
-191.7570138312738
 30
0.0
 10
-307.9775126510622
 20
-188.9608003372859
 30
0.0
 10
-310.8171127291389
 20
-186.0636990912938
 30
0.0
 10
-312.5451557124743
 20
-183.7849328132809
 30
0.0
 10
-313.3383929019992
 20
-182.5910057862807
 30
0.0
 10
-313.7740315529591
 20
-181.8897561516275
 30
0.0
 10
-313.9833774970575
 20
-181.5333396044964
 30
0.0
 10
-314.0920039379062
 20
-181.3468765236792
 30
0.0
  0
SPLINE
  5
176
330
1F
100
AcDbEntity
  8
Table_Miura_9590-71_2D
100
AcDbSpline
210
0.0
220
0.0
230
1.0
 70
    24
 71
     2
 72
     6
 73
     3
 74
     0
 42
0.0000000001
 43
0.0000000001
 40
0.0
 40
0.0
 40
0.0
 40
0.0049689727684098
 40
0.0049689727684098
 40
0.0049689727684098
 10
-314.0920039379062
 20
-181.3468765236792
 30
0.0
 10
-314.0932495822217
 20
-181.3447179029575
 30
0.0
 10
-314.0944952265372
 20
-181.3425592822358
 30
0.0
  0
SPLINE
  5
177
330
1F
100
AcDbEntity
  8
Table_Miura_9590-71_2D
100
AcDbSpline
210
0.0
220
0.0
230
1.0
 70
    24
 71
     2
 72
     6
 73
     3
 74
     0
 42
0.0000000001
 43
0.0000000001
 40
0.0
 40
0.0
 40
0.0
 40
0.0049999976354267
 40
0.0049999976354267
 40
0.0049999976354267
 10
-314.0944952265372
 20
-181.3425592822358
 30
0.0
 10
-314.095749580978
 20
-181.3403877780921
 30
0.0
 10
-314.0970039354188
 20
-181.3382162739484
 30
0.0
  0
SPLINE
  5
178
330
1F
100
AcDbEntity
  8
Table_Miura_9590-71_2D
100
AcDbSpline
210
0.0
220
0.0
230
1.0
 70
     8
 71
     3
 72
    17
 73
    13
 74
     0
 42
0.0000000001
 43
0.0000000001
 40
0.0
 40
0.0
 40
0.0
 40
0.0
 40
0.6474029094494481
 40
1.239961029460378
 40
2.476453098401701
 40
4.946873970821114
 40
9.81187462871941
 40
14.60310952278433
 40
19.26181656972226
 40
23.71952366727875
 40
28.04749662437724
 40
28.42424652247151
 40
28.42424652247151
 40
28.42424652247151
 40
28.42424652247151
 10
-314.0970039354188
 20
-181.3382162739484
 30
0.0
 10
-314.2041697051127
 20
-181.1509099550525
 30
0.0
 10
-314.4081705238486
 20
-180.7914071651861
 30
0.0
 10
-314.7974749608175
 20
-180.0634298001096
 30
0.0
 10
-315.4351875735201
 20
-178.7796580056423
 30
0.0
 10
-316.5442846490805
 20
-176.1436268969246
 30
0.0
 10
-317.6337947178627
 20
-172.2359841849917
 30
0.0
 10
-318.1103777557264
 20
-167.4693519956798
 30
0.0
 10
-317.7210600642156
 20
-162.8290446808474
 30
0.0
 10
-316.4941912444083
 20
-158.4962010702784
 30
0.0
 10
-315.0733059747289
 20
-155.7731511039876
 30
0.0
 10
-314.1862889255963
 20
-154.4797900153207
 30
0.0
 10
-314.1142609839799
 20
-154.376912284474
 30
0.0
  0
SPLINE
  5
179
330
1F
100
AcDbEntity
  8
Table_Miura_9590-71_2D
100
AcDbSpline
210
0.0
220
0.0
230
1.0
 70
     8
 71
     3
 72
    17
 73
    13
 74
     0
 42
0.0000000001
 43
0.0000000001
 40
8.114214885926136
 40
8.114214885926136
 40
8.114214885926136
 40
8.114214885926136
 40
8.490982845352113
 40
12.81895580244948
 40
17.27666290000627
 40
21.93536994694479
 40
26.72660484100899
 40
31.591605498907
 40
34.06202637132719
 40
35.29851844026861
 40
35.89107656027873
 40
36.53847946972913
 40
36.53847946972913
 40
36.53847946972913
 40
36.53847946972913
 10
314.114245545028
 20
-154.3769436984612
 30
0.0
 10
314.1862706993105
 20
-154.4798164847122
 30
0.0
 10
315.073218728177
 20
-155.7730635956526
 30
0.0
 10
316.4942704343111
 20
-158.4962452053456
 30
0.0
 10
317.7210563332947
 20
-162.8290779082803
 30
0.0
 10
318.1103824101992
 20
-167.4693170870758
 30
0.0
 10
317.6336097370586
 20
-172.2359495815191
 30
0.0
 10
316.5444464997372
 20
-176.1436660087201
 30
0.0
 10
315.434998505355
 20
-178.7795782701248
 30
0.0
 10
314.7976459644733
 20
-180.0635053409805
 30
0.0
 10
314.4081652919476
 20
-180.7914042969088
 30
0.0
 10
314.2041724798519
 20
-181.1509114762432
 30
0.0
 10
314.0970039354206
 20
-181.3382162739489
 30
0.0
  0
SPLINE
  5
17A
330
1F
100
AcDbEntity
  8
Table_Miura_9590-71_2D
100
AcDbSpline
210
0.0
220
0.0
230
1.0
 70
    24
 71
     2
 72
     6
 73
     3
 74
     0
 42
0.0000000001
 43
0.0000000001
 40
0.0
 40
0.0
 40
0.0
 40
0.0049689727683289
 40
0.0049689727683289
 40
0.0049689727683289
 10
314.0970039354206
 20
-181.3382162739489
 30
0.0
 10
314.0957573371963
 20
-181.3403743439312
 30
0.0
 10
314.0945107389721
 20
-181.3425324139135
 30
0.0
  0
SPLINE
  5
17B
330
1F
100
AcDbEntity
  8
Table_Miura_9590-71_2D
100
AcDbSpline
210
0.0
220
0.0
230
1.0
 70
    24
 71
     2
 72
     6
 73
     3
 74
     0
 42
0.0000000001
 43
0.0000000001
 40
0.0
 40
0.0
 40
0.0
 40
0.0049999976354462
 40
0.0049999976354462
 40
0.0049999976354462
 10
314.0945107389721
 20
-181.3425324139135
 30
0.0
 10
314.0932573384396
 20
-181.3447044687966
 30
0.0
 10
314.0920039379071
 20
-181.3468765236796
 30
0.0
  0
SPLINE
  5
17C
330
1F
100
AcDbEntity
  8
Table_Miura_9590-71_2D
100
AcDbSpline
210
0.0
220
0.0
230
1.0
 70
     8
 71
     3
 72
    17
 73
    13
 74
     0
 42
0.0000000001
 43
0.0000000001
 40
0.0
 40
0.0
 40
0.0
 40
0.0
 40
0.6474029094493622
 40
1.239961029460211
 40
2.476453098401548
 40
4.946873970820978
 40
9.81187462871942
 40
14.60310952278444
 40
19.26181656972225
 40
23.71952366727886
 40
28.04749662437723
 40
28.4242465224738
 40
28.4242465224738
 40
28.4242465224738
 40
28.4242465224738
 10
314.0920039379071
 20
-181.3468765236796
 30
0.0
 10
313.9833747923012
 20
-181.5333379620981
 30
0.0
 10
313.7740366529133
 20
-181.8897592484489
 30
0.0
 10
313.3382419798618
 20
-182.5908954632085
 30
0.0
 10
312.5453192995428
 20
-183.7850566833573
 30
0.0
 10
310.8169979320064
 20
-186.0635784804133
 30
0.0
 10
307.9776351089504
 20
-188.9609432336235
 30
0.0
 10
304.087902061442
 20
-191.7569923460842
 30
0.0
 10
299.8746191996761
 20
-193.7399869925092
 30
0.0
 10
295.5088321523917
 20
-194.8439092327275
 30
0.0
 10
292.440159070972
 20
-194.9749114764693
 30
0.0
 10
290.8765669873523
 20
-194.8534127226637
 30
0.0
 10
290.7514582881464
 20
-194.8424735608648
 30
0.0
  0
SPLINE
  5
17D
330
1F
100
AcDbEntity
  8
Table_Miura_9590-71_2D
100
AcDbSpline
210
0.0
220
0.0
230
1.0
 70
     8
 71
     3
 72
    17
 73
    13
 74
     0
 42
0.0000000001
 43
0.0000000001
 40
8.114214885926131
 40
8.114214885926131
 40
8.114214885926131
 40
8.114214885926131
 40
8.490982845352077
 40
12.81895580244936
 40
17.27666290000615
 40
21.93536994694509
 40
26.72660484100907
 40
31.5916054989074
 40
34.06202637132732
 40
35.29851844026865
 40
35.89107656027872
 40
36.53847946972933
 40
36.53847946972933
 40
36.53847946972933
 40
36.53847946972933
 10
-23.3627677710456
 20
349.2193881818079
 30
0.0
 10
-23.30968990193541
 20
349.3332001882534
 30
0.0
 10
-22.63317906492385
 20
350.7479432685581
 30
0.0
 10
-20.98536046487607
 20
353.3402009510077
 30
0.0
 10
-17.84641022328015
 20
356.5690450560007
 30
0.0
 10
-14.02250825326155
 20
359.2263309183511
 30
0.0
 10
-9.656097085994588
 20
361.1967499188062
 30
0.0
 10
-5.727333770593759
 20
362.2073651000163
 30
0.0
 10
-2.88984279287979
 20
362.5645110834067
 30
0.0
 10
-1.459253062470452
 20
362.6545111272628
 30
0.0
 10
-0.6341337389876571
 20
362.681160448538
 30
0.0
 10
-0.2207949827907214
 20
362.6842510807413
 30
0.0
 10
-0.0049999975121864
 20
362.6850927976295
 30
0.0
  0
SPLINE
  5
17E
330
1F
100
AcDbEntity
  8
Table_Miura_9590-71_2D
100
AcDbSpline
210
0.0
220
0.0
230
1.0
 70
    24
 71
     2
 72
     6
 73
     3
 74
     0
 42
0.0000000001
 43
0.0000000001
 40
0.0
 40
0.0
 40
0.0
 40
0.004968972768345
 40
0.004968972768345
 40
0.004968972768345
 10
-0.0049999975121864
 20
362.6850927976295
 30
0.0
 10
-0.0025077549723846
 20
362.6850922468902
 30
0.0
 10
-0.0000155124325829
 20
362.6850916961508
 30
0.0
  0
SPLINE
  5
17F
330
1F
100
AcDbEntity
  8
Table_Miura_9590-71_2D
100
AcDbSpline
210
0.0
220
0.0
230
1.0
 70
    24
 71
     2
 72
     6
 73
     3
 74
     0
 42
0.0000000001
 43
0.0000000001
 40
0.0
 40
0.0
 40
0.0
 40
0.0049999976354052
 40
0.0049999976354052
 40
0.0049999976354052
 10
-0.0000155124325829
 20
362.6850916961508
 30
0.0
 10
0.0024922425404839
 20
362.6850922468902
 30
0.0
 10
0.0049999975135506
 20
362.6850927976295
 30
0.0
  0
SPLINE
  5
180
330
1F
100
AcDbEntity
  8
Table_Miura_9590-71_2D
100
AcDbSpline
210
0.0
220
0.0
230
1.0
 70
     8
 71
     3
 72
    17
 73
    13
 74
     0
 42
0.0000000001
 43
0.0000000001
 40
0.0
 40
0.0
 40
0.0
 40
0.0
 40
0.6474029094497074
 40
1.239961029460453
 40
2.476453098401801
 40
4.946873970821248
 40
9.811874628719307
 40
14.60310952278406
 40
19.26181656972217
 40
23.71952366727891
 40
28.04749662437724
 40
28.42424652247416
 40
28.42424652247416
 40
28.42424652247416
 40
28.42424652247416
 10
0.0049999975135506
 20
362.6850927976295
 30
0.0
 10
0.2207949128123801
 20
362.6842479171514
 30
0.0
 10
0.634133870938058
 20
362.6811664136364
 30
0.0
 10
1.459232980959314
 20
362.6543252633205
 30
0.0
 10
2.889868273977299
 20
362.5647146890003
 30
0.0
 10
5.727286717078641
 20
362.2072053773397
 30
0.0
 10
9.656159608911366
 20
361.1969274186164
 30
0.0
 10
14.02247569428891
 20
359.2263443417654
 30
0.0
 10
17.84644086454227
 20
356.5690316733587
 30
0.0
 10
20.98535909201746
 20
353.3401103030067
 30
0.0
 10
22.63314690376052
 20
350.7480625804581
 30
0.0
 10
23.30972193824661
 20
349.3332027379848
 30
0.0
 10
23.36280269583567
 20
349.2193858453385
 30
0.0
  0
SPLINE
  5
181
330
1F
100
AcDbEntity
  8
Table_Miura_9590-71_2D
100
AcDbSpline
210
0.0
220
0.0
230
1.0
 70
     8
 71
     3
 72
    14
 73
    10
 74
     0
 42
0.0000000001
 43
0.0000000001
 40
4.46911228281638
 40
4.46911228281638
 40
4.46911228281638
 40
4.46911228281638
 40
7.847355141899257
 40
11.91041431683331
 40
16.08262218525761
 40
20.36384899089639
 40
24.75401733124737
 40
29.18049075025455
 40
33.71426896077073
 40
33.71426896077073
 40
33.71426896077073
 40
33.71426896077073
 10
-290.6257119738596
 20
-195.0299862577221
 30
0.0
 10
-291.7413199365315
 20
-195.1827639244343
 30
0.0
 10
-294.2278547251958
 20
-195.3063050349608
 30
0.0
 10
-298.0829420215314
 20
-194.7969136693844
 30
0.0
 10
-302.0646242760886
 20
-193.495325964117
 30
0.0
 10
-305.8547574636132
 20
-191.4715439241441
 30
0.0
 10
-309.3255825422948
 20
-188.7993624809075
 30
0.0
 10
-312.3882665442488
 20
-185.5522113894082
 30
0.0
 10
-314.0824246679894
 20
-183.0815440883316
 30
0.0
 10
-314.8380452550214
 20
-181.7726981689822
 30
0.0
  0
SPLINE
  5
182
330
1F
100
AcDbEntity
  8
Table_Miura_9590-71_2D
100
AcDbSpline
210
0.0
220
0.0
230
1.0
 70
     8
 71
     3
 72
    14
 73
    10
 74
     0
 42
0.0000000001
 43
0.0000000001
 40
0.0
 40
0.0
 40
0.0
 40
0.0
 40
4.517138906909165
 40
8.979902650677893
 40
13.35193316095314
 40
17.61498633512991
 40
21.78720833965956
 40
25.85028218837527
 40
29.24666785956805
 40
29.24666785956805
 40
29.24666785956805
 40
29.24666785956805
 10
-314.8380452550214
 20
-181.7726981689822
 30
0.0
 10
-315.5909318047256
 20
-180.4687038469565
 30
0.0
 10
-316.8873942083294
 20
-177.7608058030238
 30
0.0
 10
-318.1683647831887
 20
-173.4841738243882
 30
0.0
 10
-318.7455854827676
 20
-169.1421649931907
 30
0.0
 10
-318.6051075665664
 20
-164.8601490892594
 30
0.0
 10
-317.7458513318606
 20
-160.7664089068302
 30
0.0
 10
-316.2602051501003
 20
-157.1662165157188
 30
0.0
 10
-314.9075991007423
 20
-155.0687849364761
 30
0.0
 10
-314.2137812157808
 20
-154.1742510735219
 30
0.0
  0
SPLINE
  5
183
330
1F
100
AcDbEntity
  8
Table_Miura_9590-71_2D
100
AcDbSpline
210
0.0
220
0.0
230
1.0
 70
     8
 71
     3
 72
    14
 73
    10
 74
     0
 42
0.0000000001
 43
0.0000000001
 40
4.469112282819414
 40
4.469112282819414
 40
4.469112282819414
 40
4.469112282819414
 40
7.847355141898799
 40
11.91041431683293
 40
16.08262218525716
 40
20.363848990896
 40
24.75401733124694
 40
29.1804907502542
 40
33.7142689607704
 40
33.7142689607704
 40
33.7142689607704
 40
33.7142689607704
 10
314.2137785858466
 20
-154.1742564334414
 30
0.0
 10
314.9038919076846
 20
-155.064012436422
 30
0.0
 10
316.254149042142
 20
-157.1556441755343
 30
0.0
 10
317.7405468272564
 20
-160.7489433907572
 30
0.0
 10
318.6041799365184
 20
-164.8479752256353
 30
0.0
 10
318.7465998719399
 20
-169.1422178697456
 30
0.0
 10
318.1678353979178
 20
-173.4841312815921
 30
0.0
 10
316.887062063732
 20
-177.7600689768003
 30
0.0
 10
315.594480478572
 20
-180.4625866005253
 30
0.0
 10
314.8387969562918
 20
-181.771396184192
 30
0.0
  0
SPLINE
  5
184
330
1F
100
AcDbEntity
  8
Table_Miura_9590-71_2D
100
AcDbSpline
210
0.0
220
0.0
230
1.0
 70
     8
 71
     3
 72
    14
 73
    10
 74
     0
 42
0.0000000001
 43
0.0000000001
 40
0.0
 40
0.0
 40
0.0
 40
0.0
 40
4.517138906909315
 40
8.97990265067786
 40
13.35193316095309
 40
17.61498633512963
 40
21.78720833966017
 40
25.85028218837419
 40
29.24666785956914
 40
29.24666785956914
 40
29.24666785956914
 40
29.24666785956914
 10
314.8387969562918
 20
-181.771396184192
 30
0.0
 10
314.0859480218769
 20
-183.0754122234156
 30
0.0
 10
312.3890707267766
 20
-185.5521306219571
 30
0.0
 10
309.3258840780691
 20
-188.7997996705994
 30
0.0
 10
305.8542044765845
 20
-191.4706918756248
 30
0.0
 10
302.0756309662738
 20
-193.4900423834896
 30
0.0
 10
298.1007198544503
 20
-194.792774747091
 30
0.0
 10
294.2400386943502
 20
-195.3062636082072
 30
0.0
 10
291.7473066393461
 20
-195.1835881977713
 30
0.0
 10
290.6257086470006
 20
-195.0299912152711
 30
0.0
  0
SPLINE
  5
185
330
1F
100
AcDbEntity
  8
Table_Miura_9590-71_2D
100
AcDbSpline
210
0.0
220
0.0
230
1.0
 70
     8
 71
     3
 72
    14
 73
    10
 74
     0
 42
0.0000000001
 43
0.0000000001
 40
4.469112282817966
 40
4.469112282817966
 40
4.469112282817966
 40
4.469112282817966
 40
7.84735514190067
 40
11.91041431683501
 40
16.08262218525901
 40
20.36384899089777
 40
24.75401733124877
 40
29.18049075025599
 40
33.71426896077235
 40
33.71426896077235
 40
33.71426896077235
 40
33.71426896077235
 10
-23.58806661198733
 20
349.2042426911626
 30
0.0
 10
-23.1625719711565
 20
350.2467763608558
 30
0.0
 10
-22.02629431695463
 20
352.461949210495
 30
0.0
 10
-19.65760480572862
 20
355.5458570601426
 30
0.0
 10
-16.53955566043351
 20
358.3433011897528
 30
0.0
 10
-12.89184240833038
 20
360.6137617938907
 30
0.0
 10
-8.842252855626612
 20
362.2834937625015
 30
0.0
 10
-4.498795519482317
 20
363.3122803662109
 30
0.0
 10
-1.512055810581786
 20
363.5441306888571
 30
0.0
 10
-0.0007517012686549
 20
363.5440943531757
 30
0.0
  0
SPLINE
  5
186
330
1F
100
AcDbEntity
  8
Table_Miura_9590-71_2D
100
AcDbSpline
210
0.0
220
0.0
230
1.0
 70
     8
 71
     3
 72
    14
 73
    10
 74
     0
 42
0.0000000001
 43
0.0000000001
 40
0.0
 40
0.0
 40
0.0
 40
0.0
 40
4.517138906908955
 40
8.979902650677984
 40
13.35193316095315
 40
17.61498633513034
 40
21.78720833965958
 40
25.85028218837385
 40
29.24666785957017
 40
29.24666785957017
 40
29.24666785957017
 40
29.24666785957017
 10
-0.0007517012686549
 20
363.5440943531757
 30
0.0
 10
1.504983782848691
 20
363.5441160703728
 30
0.0
 10
4.498323481555579
 20
363.3129364249851
 30
0.0
 10
8.84248070511785
 20
362.2839734949893
 30
0.0
 10
12.89138100618311
 20
360.6128568688166
 30
0.0
 10
16.52947660029076
 20
358.350191472749
 30
0.0
 10
19.64513147741491
 20
355.559183653921
 30
0.0
 10
22.02016645575556
 20
352.4724801239267
 30
0.0
 10
23.16029246140019
 20
350.2523731342481
 30
0.0
 10
23.58807256878304
 20
349.2042422887926
 30
0.0
  0
SPLINE
  5
187
330
1F
100
AcDbEntity
  8
Table_Miura_9590-71_2D
100
AcDbSpline
210
0.0
220
0.0
230
1.0
 70
    24
 71
     2
 72
     6
 73
     3
 74
     0
 42
0.0000000001
 43
0.0000000001
 40
0.0
 40
0.0
 40
0.0
 40
0.0064177164631026
 40
0.0064177164631026
 40
0.0064177164631026
 10
308.1909386453663
 20
-148.9165465123622
 30
0.0
 10
308.1937282849317
 20
-148.9181322873291
 30
0.0
 10
308.1965179244971
 20
-148.9197180622961
 30
0.0
  0
ENDSEC
  0
SECTION
  2
OBJECTS
  0
DICTIONARY
  5
C
330
0
100
AcDbDictionary
281
     1
  3
ACAD_GROUP
350
D
  3
ACAD_LAYOUT
350
1A
  3
ACAD_MLEADERSTYLE
350
189
  3
ACAD_MLINESTYLE
350
17
  3
ACAD_PLOTSETTINGS
350
19
  3
ACAD_PLOTSTYLENAME
350
E
  3
ACAD_TABLESTYLE
350
188
  3
ACAD_VISUALSTYLE
350
2A
  0
DICTIONARY
  5
D
102
{ACAD_REACTORS
330
C
102
}
330
C
100
AcDbDictionary
281
     1
  0
DICTIONARY
  5
1A
102
{ACAD_REACTORS
330
C
102
}
330
C
100
AcDbDictionary
281
     1
  3
Layout1
350
1E
  3
Layout2
350
26
  3
Model
350
22
  0
DICTIONARY
  5
189
102
{ACAD_REACTORS
330
C
102
}
330
C
100
AcDbDictionary
281
     1
  0
DICTIONARY
  5
17
102
{ACAD_REACTORS
330
C
102
}
330
C
100
AcDbDictionary
281
     1
  3
Standard
350
18
  0
DICTIONARY
  5
19
102
{ACAD_REACTORS
330
C
102
}
330
C
100
AcDbDictionary
281
     1
  0
ACDBDICTIONARYWDFLT
  5
E
102
{ACAD_REACTORS
330
C
102
}
330
C
100
AcDbDictionary
281
     1
  3
Normal
350
F
100
AcDbDictionaryWithDefault
340
F
  0
DICTIONARY
  5
188
102
{ACAD_REACTORS
330
C
102
}
330
C
100
AcDbDictionary
281
     1
  0
DICTIONARY
  5
2A
102
{ACAD_REACTORS
330
C
102
}
330
C
100
AcDbDictionary
281
     1
  3
2dWireframe
350
2F
  3
3D Hidden
350
31
  3
3dWireframe
350
30
  3
Basic
350
32
  3
Brighten
350
36
  3
ColorChange
350
3A
  3
Conceptual
350
34
  3
Dim
350
35
  3
Facepattern
350
39
  3
Flat
350
2B
  3
FlatWithEdges
350
2C
  3
Gouraud
350
2D
  3
GouraudWithEdges
350
2E
  3
Linepattern
350
38
  3
Realistic
350
33
  3
Thicken
350
37
  0
LAYOUT
  5
1E
102
{ACAD_REACTORS
330
1A
102
}
330
1A
100
AcDbPlotSettings
  1

  2
none_device
  4

  6

 40
0.0
 41
0.0
 42
0.0
 43
0.0
 44
0.0
 45
0.0
 46
0.0
 47
0.0
 48
0.0
 49
0.0
140
0.0
141
0.0
142
1.0
143
1.0
 70
   688
 72
     0
 73
     0
 74
     5
  7

 75
    16
 76
     0
 77
     2
 78
   300
147
1.0
148
0.0
149
0.0
100
AcDbLayout
  1
Layout1
 70
     1
 71
     1
 10
0.0
 20
0.0
 11
12.0
 21
9.0
 12
0.0
 22
0.0
 32
0.0
 14
1.000000000000000E+20
 24
1.000000000000000E+20
 34
1.000000000000000E+20
 15
-1.000000000000000E+20
 25
-1.000000000000000E+20
 35
-1.000000000000000E+20
146
0.0
 13
0.0
 23
0.0
 33
0.0
 16
1.0
 26
0.0
 36
0.0
 17
0.0
 27
1.0
 37
0.0
 76
     0
330
1B
  0
LAYOUT
  5
26
102
{ACAD_REACTORS
330
1A
102
}
330
1A
100
AcDbPlotSettings
  1

  2
none_device
  4

  6

 40
0.0
 41
0.0
 42
0.0
 43
0.0
 44
0.0
 45
0.0
 46
0.0
 47
0.0
 48
0.0
 49
0.0
140
0.0
141
0.0
142
1.0
143
1.0
 70
   688
 72
     0
 73
     0
 74
     5
  7

 75
    16
 76
     0
 77
     2
 78
   300
147
1.0
148
0.0
149
0.0
100
AcDbLayout
  1
Layout2
 70
     1
 71
     2
 10
0.0
 20
0.0
 11
0.0
 21
0.0
 12
0.0
 22
0.0
 32
0.0
 14
0.0
 24
0.0
 34
0.0
 15
0.0
 25
0.0
 35
0.0
146
0.0
 13
0.0
 23
0.0
 33
0.0
 16
1.0
 26
0.0
 36
0.0
 17
0.0
 27
1.0
 37
0.0
 76
     0
330
23
  0
LAYOUT
  5
22
102
{ACAD_REACTORS
330
1A
102
}
330
1A
100
AcDbPlotSettings
  1

  2
none_device
  4

  6

 40
0.0
 41
0.0
 42
0.0
 43
0.0
 44
0.0
 45
0.0
 46
0.0
 47
0.0
 48
0.0
 49
0.0
140
0.0
141
0.0
142
1.0
143
1.0
 70
  1712
 72
     0
 73
     0
 74
     0
  7

 75
     0
 76
     0
 77
     2
 78
   300
147
1.0
148
0.0
149
0.0
100
AcDbLayout
  1
Model
 70
     1
 71
     0
 10
0.0
 20
0.0
 11
12.0
 21
9.0
 12
0.0
 22
0.0
 32
0.0
 14
-350.0
 24
-350.0
 34
0.0
 15
2457.315693568679
 25
2272.537390964269
 35
0.0
146
0.0
 13
0.0
 23
0.0
 33
0.0
 16
1.0
 26
0.0
 36
0.0
 17
0.0
 27
1.0
 37
0.0
 76
     0
330
1F
331
29
  0
MLINESTYLE
  5
18
102
{ACAD_REACTORS
330
17
102
}
330
17
100
AcDbMlineStyle
  2
Standard
 70
     0
  3

 62
   256
 51
90.0
 52
90.0
 71
     2
 49
0.5
 62
   256
  6
BYLAYER
 49
-0.5
 62
   256
  6
BYLAYER
  0
ACDBPLACEHOLDER
  5
F
102
{ACAD_REACTORS
330
E
102
}
330
E
  0
VISUALSTYLE
  5
2F
102
{ACAD_REACTORS
330
2A
102
}
330
2A
100
AcDbVisualStyle
  2
2dWireframe
 70
     4
 71
     0
 72
     2
 73
     0
 90
        0
 40
-0.6
 41
-30.0
 62
     5
 63
     7
421
 16777215
 74
     1
 91
        4
 64
     7
 65
   257
 75
     1
175
     1
 42
1.0
 92
        0
 66
   257
 43
1.0
 76
     1
 77
     6
 78
     2
 67
     7
 79
     5
170
     0
171
     0
290
     0
174
     0
 93
        1
 44
0.0
173
     0
291
     0
 45
0.0
1001
ACAD
1000
AcDbSavedByObjectVersion
1070
     0
  0
VISUALSTYLE
  5
31
102
{ACAD_REACTORS
330
2A
102
}
330
2A
100
AcDbVisualStyle
  2
3D Hidden
 70
     6
 71
     1
 72
     2
 73
     2
 90
        0
 40
-0.6
 41
-30.0
 62
     5
 63
     7
421
 16777215
 74
     2
 91
        2
 64
     7
 65
   257
 75
     2
175
     1
 42
40.0
 92
        0
 66
   257
 43
1.0
 76
     1
 77
     6
 78
     2
 67
     7
 79
     3
170
     0
171
     0
290
     0
174
     0
 93
        1
 44
0.0
173
     0
291
     0
 45
0.0
1001
ACAD
1000
AcDbSavedByObjectVersion
1070
     0
  0
VISUALSTYLE
  5
30
102
{ACAD_REACTORS
330
2A
102
}
330
2A
100
AcDbVisualStyle
  2
3dWireframe
 70
     5
 71
     0
 72
     2
 73
     0
 90
        0
 40
-0.6
 41
-30.0
 62
     5
 63
     7
421
 16777215
 74
     1
 91
        4
 64
     7
 65
   257
 75
     1
175
     1
 42
1.0
 92
        0
 66
   257
 43
1.0
 76
     1
 77
     6
 78
     2
 67
     7
 79
     5
170
     0
171
     0
290
     0
174
     0
 93
        1
 44
0.0
173
     0
291
     0
 45
0.0
1001
ACAD
1000
AcDbSavedByObjectVersion
1070
     0
  0
VISUALSTYLE
  5
32
102
{ACAD_REACTORS
330
2A
102
}
330
2A
100
AcDbVisualStyle
  2
Basic
 70
     7
 71
     1
 72
     0
 73
     1
 90
        0
 40
-0.6
 41
-30.0
 62
     5
 63
     7
421
 16777215
 74
     0
 91
        4
 64
     7
 65
   257
 75
     1
175
     1
 42
1.0
 92
        8
 66
     7
 43
1.0
 76
     1
 77
     6
 78
     2
 67
     7
 79
     5
170
     0
171
     0
290
     0
174
     0
 93
        1
 44
0.0
173
     0
291
     1
 45
0.0
1001
ACAD
1000
AcDbSavedByObjectVersion
1070
     0
  0
VISUALSTYLE
  5
36
102
{ACAD_REACTORS
330
2A
102
}
330
2A
100
AcDbVisualStyle
  2
Brighten
 70
    12
 71
     2
 72
     2
 73
     0
 90
        0
 40
-0.6
 41
-30.0
 62
     5
 63
     7
421
 16777215
 74
     1
 91
        4
 64
     7
 65
   257
 75
     1
175
     1
 42
1.0
 92
        8
 66
     7
 43
1.0
 76
     1
 77
     6
 78
     2
 67
     7
 79
     5
170
     0
171
     0
290
     0
174
     0
 93
        1
 44
50.0
173
     0
291
     1
 45
0.0
1001
ACAD
1000
AcDbSavedByObjectVersion
1070
     0
  0
VISUALSTYLE
  5
3A
102
{ACAD_REACTORS
330
2A
102
}
330
2A
100
AcDbVisualStyle
  2
ColorChange
 70
    16
 71
     2
 72
     2
 73
     3
 90
        0
 40
-0.6
 41
-30.0
 62
     5
 63
     8
421
  8421504
 74
     1
 91
        4
 64
     7
 65
   257
 75
     1
175
     1
 42
1.0
 92
        8
 66
     8
424
  8421504
 43
1.0
 76
     1
 77
     6
 78
     2
 67
     7
 79
     5
170
     0
171
     0
290
     0
174
     0
 93
        1
 44
0.0
173
     0
291
     1
 45
0.0
1001
ACAD
1000
AcDbSavedByObjectVersion
1070
     0
  0
VISUALSTYLE
  5
34
102
{ACAD_REACTORS
330
2A
102
}
330
2A
100
AcDbVisualStyle
  2
Conceptual
 70
     9
 71
     3
 72
     2
 73
     0
 90
        0
 40
-0.6
 41
-30.0
 62
     5
 63
     7
421
 16777215
 74
     2
 91
        2
 64
     7
 65
   257
 75
     1
175
     1
 42
40.0
 92
        8
 66
     7
 43
1.0
 76
     1
 77
     6
 78
     2
 67
     7
 79
     3
170
     0
171
     0
290
     0
174
     0
 93
        1
 44
0.0
173
     0
291
     0
 45
0.0
1001
ACAD
1000
AcDbSavedByObjectVersion
1070
     0
  0
VISUALSTYLE
  5
35
102
{ACAD_REACTORS
330
2A
102
}
330
2A
100
AcDbVisualStyle
  2
Dim
 70
    11
 71
     2
 72
     2
 73
     0
 90
        0
 40
-0.6
 41
-30.0
 62
     5
 63
     7
421
 16777215
 74
     1
 91
        4
 64
     7
 65
   257
 75
     1
175
     1
 42
1.0
 92
        8
 66
     7
 43
1.0
 76
     1
 77
     6
 78
     2
 67
     7
 79
     5
170
     0
171
     0
290
     0
174
     0
 93
        1
 44
-50.0
173
     0
291
     1
 45
0.0
1001
ACAD
1000
AcDbSavedByObjectVersion
1070
     0
  0
VISUALSTYLE
  5
39
102
{ACAD_REACTORS
330
2A
102
}
330
2A
100
AcDbVisualStyle
  2
Facepattern
 70
    15
 71
     2
 72
     2
 73
     0
 90
        0
 40
-0.6
 41
-30.0
 62
     5
 63
     7
421
 16777215
 74
     1
 91
        4
 64
     7
 65
   257
 75
     1
175
     1
 42
1.0
 92
        8
 66
     7
 43
1.0
 76
     1
 77
     6
 78
     2
 67
     7
 79
     5
170
     0
171
     0
290
     0
174
     0
 93
        1
 44
0.0
173
     0
291
     1
 45
0.0
1001
ACAD
1000
AcDbSavedByObjectVersion
1070
     0
  0
VISUALSTYLE
  5
2B
102
{ACAD_REACTORS
330
2A
102
}
330
2A
100
AcDbVisualStyle
  2
Flat
 70
     0
 71
     2
 72
     1
 73
     1
 90
        2
 40
-0.6
 41
30.0
 62
     5
 63
     7
421
 16777215
 74
     0
 91
        4
 64
     7
 65
   257
 75
     1
175
     1
 42
1.0
 92
        8
 66
     7
 43
1.0
 76
     1
 77
     6
 78
     2
 67
     7
 79
     5
170
     0
171
     0
290
     0
174
     0
 93
       13
 44
0.0
173
     0
291
     1
 45
0.0
1001
ACAD
1000
AcDbSavedByObjectVersion
1070
     0
  0
VISUALSTYLE
  5
2C
102
{ACAD_REACTORS
330
2A
102
}
330
2A
100
AcDbVisualStyle
  2
FlatWithEdges
 70
     1
 71
     2
 72
     1
 73
     1
 90
        2
 40
-0.6
 41
30.0
 62
     5
 63
     7
421
 16777215
 74
     1
 91
        4
 64
     7
 65
   257
 75
     1
175
     1
 42
1.0
 92
        0
 66
   257
 43
1.0
 76
     1
 77
     6
 78
     2
 67
     7
 79
     5
170
     0
171
     0
290
     0
174
     0
 93
       13
 44
0.0
173
     0
291
     1
 45
0.0
1001
ACAD
1000
AcDbSavedByObjectVersion
1070
     0
  0
VISUALSTYLE
  5
2D
102
{ACAD_REACTORS
330
2A
102
}
330
2A
100
AcDbVisualStyle
  2
Gouraud
 70
     2
 71
     2
 72
     2
 73
     1
 90
        2
 40
-0.6
 41
30.0
 62
     5
 63
     7
421
 16777215
 74
     0
 91
        4
 64
     7
 65
   257
 75
     1
175
     1
 42
1.0
 92
        0
 66
     7
 43
1.0
 76
     1
 77
     6
 78
     2
 67
     7
 79
     5
170
     0
171
     0
290
     0
174
     0
 93
       13
 44
0.0
173
     0
291
     1
 45
0.0
1001
ACAD
1000
AcDbSavedByObjectVersion
1070
     0
  0
VISUALSTYLE
  5
2E
102
{ACAD_REACTORS
330
2A
102
}
330
2A
100
AcDbVisualStyle
  2
GouraudWithEdges
 70
     3
 71
     2
 72
     2
 73
     1
 90
        2
 40
-0.6
 41
30.0
 62
     5
 63
     7
421
 16777215
 74
     1
 91
        4
 64
     7
 65
   257
 75
     1
175
     1
 42
1.0
 92
        0
 66
   257
 43
1.0
 76
     1
 77
     6
 78
     2
 67
     7
 79
     5
170
     0
171
     0
290
     0
174
     0
 93
       13
 44
0.0
173
     0
291
     1
 45
0.0
1001
ACAD
1000
AcDbSavedByObjectVersion
1070
     0
  0
VISUALSTYLE
  5
38
102
{ACAD_REACTORS
330
2A
102
}
330
2A
100
AcDbVisualStyle
  2
Linepattern
 70
    14
 71
     2
 72
     2
 73
     0
 90
        0
 40
-0.6
 41
-30.0
 62
     5
 63
     7
421
 16777215
 74
     1
 91
        4
 64
     7
 65
   257
 75
     7
175
     7
 42
1.0
 92
        8
 66
     7
 43
1.0
 76
     1
 77
     6
 78
     2
 67
     7
 79
     5
170
     0
171
     0
290
     0
174
     0
 93
        1
 44
0.0
173
     0
291
     1
 45
0.0
1001
ACAD
1000
AcDbSavedByObjectVersion
1070
     0
  0
VISUALSTYLE
  5
33
102
{ACAD_REACTORS
330
2A
102
}
330
2A
100
AcDbVisualStyle
  2
Realistic
 70
     8
 71
     2
 72
     2
 73
     0
 90
        0
 40
-0.6
 41
-30.0
 62
     5
 63
     7
421
 16777215
 74
     1
 91
        0
 64
     7
 65
   257
 75
     1
175
     1
 42
1.0
 92
        8
 66
     8
424
  7895160
 43
1.0
 76
     1
 77
     6
 78
     2
 67
     7
 79
     5
170
     0
171
     0
290
     0
174
     0
 93
       13
 44
0.0
173
     0
291
     0
 45
0.0
1001
ACAD
1000
AcDbSavedByObjectVersion
1070
     0
  0
VISUALSTYLE
  5
37
102
{ACAD_REACTORS
330
2A
102
}
330
2A
100
AcDbVisualStyle
  2
Thicken
 70
    13
 71
     2
 72
     2
 73
     0
 90
        0
 40
-0.6
 41
-30.0
 62
     5
 63
     7
421
 16777215
 74
     1
 91
        4
 64
     7
 65
   257
 75
     1
175
     1
 42
1.0
 92
       12
 66
     7
 43
1.0
 76
     1
 77
     6
 78
     2
 67
     7
 79
     5
170
     0
171
     0
290
     0
174
     0
 93
        1
 44
0.0
173
     0
291
     1
 45
0.0
1001
ACAD
1000
AcDbSavedByObjectVersion
1070
     0
  0
ENDSEC
  0
EOF
