  0
SECTION
  2
HEADER
  9
$ACADVER
  1
AC1015
  9
$ACADMAINTVER
 70
    20
  9
$DWGCODEPAGE
  3
ANSI_1252
  9
$INSBASE
 10
0.0
 20
0.0
 30
0.0
  9
$EXTMIN
 10
-318.5591312285618
 20
-300.0000001441435
 30
0.0
  9
$EXTMAX
 10
2425.723943819779
 20
2292.537341325203
 30
0.0
  9
$LIMMIN
 10
0.0
 20
0.0
  9
$LIMMAX
 10
12.0
 20
9.0
  9
$ORTHOMODE
 70
     0
  9
$REGENMODE
 70
     1
  9
$FILLMODE
 70
     1
  9
$QTEXTMODE
 70
     0
  9
$MIRRTEXT
 70
     1
  9
$LTSCALE
 40
1.0
  9
$ATTMODE
 70
     1
  9
$TEXTSIZE
 40
0.2
  9
$TRACEWID
 40
0.05
  9
$TEXTSTYLE
  7
Standard
  9
$CLAYER
  8
Table_Miura_9553-71_2D
  9
$CELTYPE
  6
ByLayer
  9
$CECOLOR
 62
   256
  9
$CELTSCALE
 40
1.0
  9
$DISPSILH
 70
     0
  9
$DIMSCALE
 40
1.0
  9
$DIMASZ
 40
0.18
  9
$DIMEXO
 40
0.0625
  9
$DIMDLI
 40
0.38
  9
$DIMRND
 40
0.0
  9
$DIMDLE
 40
0.0
  9
$DIMEXE
 40
0.18
  9
$DIMTP
 40
0.0
  9
$DIMTM
 40
0.0
  9
$DIMTXT
 40
0.18
  9
$DIMCEN
 40
0.09
  9
$DIMTSZ
 40
0.0
  9
$DIMTOL
 70
     0
  9
$DIMLIM
 70
     0
  9
$DIMTIH
 70
     1
  9
$DIMTOH
 70
     1
  9
$DIMSE1
 70
     0
  9
$DIMSE2
 70
     0
  9
$DIMTAD
 70
     0
  9
$DIMZIN
 70
     0
  9
$DIMBLK
  1

  9
$DIMASO
 70
     1
  9
$DIMSHO
 70
     1
  9
$DIMPOST
  1

  9
$DIMAPOST
  1

  9
$DIMALT
 70
     0
  9
$DIMALTD
 70
     2
  9
$DIMALTF
 40
25.4
  9
$DIMLFAC
 40
1.0
  9
$DIMTOFL
 70
     0
  9
$DIMTVP
 40
0.0
  9
$DIMTIX
 70
     0
  9
$DIMSOXD
 70
     0
  9
$DIMSAH
 70
     0
  9
$DIMBLK1
  1

  9
$DIMBLK2
  1

  9
$DIMSTYLE
  2
Standard
  9
$DIMCLRD
 70
     0
  9
$DIMCLRE
 70
     0
  9
$DIMCLRT
 70
     0
  9
$DIMTFAC
 40
1.0
  9
$DIMGAP
 40
0.09
  9
$DIMJUST
 70
     0
  9
$DIMSD1
 70
     0
  9
$DIMSD2
 70
     0
  9
$DIMTOLJ
 70
     1
  9
$DIMTZIN
 70
     0
  9
$DIMALTZ
 70
     0
  9
$DIMALTTZ
 70
     0
  9
$DIMUPT
 70
     0
  9
$DIMDEC
 70
     4
  9
$DIMTDEC
 70
     4
  9
$DIMALTU
 70
     2
  9
$DIMALTTD
 70
     2
  9
$DIMTXSTY
  7
Standard
  9
$DIMAUNIT
 70
     0
  9
$DIMADEC
 70
     0
  9
$DIMALTRND
 40
0.0
  9
$DIMAZIN
 70
     0
  9
$DIMDSEP
 70
    46
  9
$DIMATFIT
 70
     3
  9
$DIMFRAC
 70
     0
  9
$DIMLDRBLK
  1

  9
$DIMLUNIT
 70
     2
  9
$DIMLWD
 70
    -2
  9
$DIMLWE
 70
    -2
  9
$DIMTMOVE
 70
     2
  9
$LUNITS
 70
     2
  9
$LUPREC
 70
     3
  9
$SKETCHINC
 40
0.1
  9
$FILLETRAD
 40
0.5
  9
$AUNITS
 70
     0
  9
$AUPREC
 70
     0
  9
$MENU
  1
.
  9
$ELEVATION
 40
0.0
  9
$PELEVATION
 40
0.0
  9
$THICKNESS
 40
0.0
  9
$LIMCHECK
 70
     0
  9
$CHAMFERA
 40
0.5
  9
$CHAMFERB
 40
0.5
  9
$CHAMFERC
 40
1.0
  9
$CHAMFERD
 40
0.0
  9
$SKPOLY
 70
     0
  9
$TDCREATE
 40
2457213.713014873
  9
$TDUCREATE
 40
2457213.629681539
  9
$TDUPDATE
 40
2457213.714250498
  9
$TDUUPDATE
 40
2457213.630917165
  9
$TDINDWG
 40
0.0001727662
  9
$TDUSRTIMER
 40
0.0001727662
  9
$USRTIMER
 70
     1
  9
$ANGBASE
 50
0.0
  9
$ANGDIR
 70
     0
  9
$PDMODE
 70
     0
  9
$PDSIZE
 40
0.0
  9
$PLINEWID
 40
0.0
  9
$SPLFRAME
 70
     0
  9
$SPLINETYPE
 70
     6
  9
$SPLINESEGS
 70
     8
  9
$HANDSEED
  5
182
  9
$SURFTAB1
 70
     6
  9
$SURFTAB2
 70
     6
  9
$SURFTYPE
 70
     6
  9
$SURFU
 70
     6
  9
$SURFV
 70
     6
  9
$UCSBASE
  2

  9
$UCSNAME
  2

  9
$UCSORG
 10
0.0
 20
0.0
 30
0.0
  9
$UCSXDIR
 10
1.0
 20
0.0
 30
0.0
  9
$UCSYDIR
 10
0.0
 20
1.0
 30
0.0
  9
$UCSORTHOREF
  2

  9
$UCSORTHOVIEW
 70
     0
  9
$UCSORGTOP
 10
0.0
 20
0.0
 30
0.0
  9
$UCSORGBOTTOM
 10
0.0
 20
0.0
 30
0.0
  9
$UCSORGLEFT
 10
0.0
 20
0.0
 30
0.0
  9
$UCSORGRIGHT
 10
0.0
 20
0.0
 30
0.0
  9
$UCSORGFRONT
 10
0.0
 20
0.0
 30
0.0
  9
$UCSORGBACK
 10
0.0
 20
0.0
 30
0.0
  9
$PUCSBASE
  2

  9
$PUCSNAME
  2

  9
$PUCSORG
 10
0.0
 20
0.0
 30
0.0
  9
$PUCSXDIR
 10
1.0
 20
0.0
 30
0.0
  9
$PUCSYDIR
 10
0.0
 20
1.0
 30
0.0
  9
$PUCSORTHOREF
  2

  9
$PUCSORTHOVIEW
 70
     0
  9
$PUCSORGTOP
 10
0.0
 20
0.0
 30
0.0
  9
$PUCSORGBOTTOM
 10
0.0
 20
0.0
 30
0.0
  9
$PUCSORGLEFT
 10
0.0
 20
0.0
 30
0.0
  9
$PUCSORGRIGHT
 10
0.0
 20
0.0
 30
0.0
  9
$PUCSORGFRONT
 10
0.0
 20
0.0
 30
0.0
  9
$PUCSORGBACK
 10
0.0
 20
0.0
 30
0.0
  9
$USERI1
 70
     0
  9
$USERI2
 70
     0
  9
$USERI3
 70
     0
  9
$USERI4
 70
     0
  9
$USERI5
 70
     0
  9
$USERR1
 40
0.0
  9
$USERR2
 40
0.0
  9
$USERR3
 40
0.0
  9
$USERR4
 40
0.0
  9
$USERR5
 40
0.0
  9
$WORLDVIEW
 70
     1
  9
$SHADEDGE
 70
     3
  9
$SHADEDIF
 70
    70
  9
$TILEMODE
 70
     1
  9
$MAXACTVP
 70
    64
  9
$PINSBASE
 10
0.0
 20
0.0
 30
0.0
  9
$PLIMCHECK
 70
     0
  9
$PEXTMIN
 10
1.000000000000000E+20
 20
1.000000000000000E+20
 30
1.000000000000000E+20
  9
$PEXTMAX
 10
-1.000000000000000E+20
 20
-1.000000000000000E+20
 30
-1.000000000000000E+20
  9
$PLIMMIN
 10
0.0
 20
0.0
  9
$PLIMMAX
 10
12.0
 20
9.0
  9
$UNITMODE
 70
     0
  9
$VISRETAIN
 70
     1
  9
$PLINEGEN
 70
     0
  9
$PSLTSCALE
 70
     1
  9
$TREEDEPTH
 70
  3020
  9
$CMLSTYLE
  2
Standard
  9
$CMLJUST
 70
     0
  9
$CMLSCALE
 40
1.0
  9
$PROXYGRAPHICS
 70
     1
  9
$MEASUREMENT
 70
     0
  9
$CELWEIGHT
370
    -1
  9
$ENDCAPS
280
     0
  9
$JOINSTYLE
280
     0
  9
$LWDISPLAY
290
     0
  9
$INSUNITS
 70
     4
  9
$HYPERLINKBASE
  1

  9
$STYLESHEET
  1

  9
$XEDIT
290
     1
  9
$CEPSNTYPE
380
     0
  9
$PSTYLEMODE
290
     1
  9
$FINGERPRINTGUID
  2
{0083EDE0-1AA6-4E91-AD3B-993EB15A4C1A}
  9
$VERSIONGUID
  2
{FAEB1C32-E019-11D5-929B-00C0DF256EC4}
  9
$EXTNAMES
290
     1
  9
$PSVPSCALE
 40
0.0
  9
$OLESTARTUP
290
     0
  0
ENDSEC
  0
SECTION
  2
CLASSES
  0
CLASS
  1
ACDBDICTIONARYWDFLT
  2
AcDbDictionaryWithDefault
  3
ObjectDBX Classes
 90
        0
280
     0
281
     0
  0
CLASS
  1
VISUALSTYLE
  2
AcDbVisualStyle
  3
ObjectDBX Classes
 90
     4095
280
     0
281
     0
  0
CLASS
  1
MATERIAL
  2
AcDbMaterial
  3
ObjectDBX Classes
 90
     1024
280
     0
281
     0
  0
CLASS
  1
TABLESTYLE
  2
AcDbTableStyle
  3
ObjectDBX Classes
 90
     4095
280
     0
281
     0
  0
CLASS
  1
DICTIONARYVAR
  2
AcDbDictionaryVar
  3
ObjectDBX Classes
 90
        0
280
     0
281
     0
  0
CLASS
  1
ACDBPLACEHOLDER
  2
AcDbPlaceHolder
  3
ObjectDBX Classes
 90
        0
280
     0
281
     0
  0
CLASS
  1
LAYOUT
  2
AcDbLayout
  3
ObjectDBX Classes
 90
        0
280
     0
281
     0
  0
ENDSEC
  0
SECTION
  2
TABLES
  0
TABLE
  2
VPORT
  5
8
330
0
100
AcDbSymbolTable
 70
     1
  0
VPORT
  5
29
330
8
100
AcDbSymbolTableRecord
100
AcDbViewportTableRecord
  2
*Active
 70
     0
 10
0.0
 20
0.0
 11
1.0
 21
1.0
 12
2467.637227641676
 22
996.26867059053
 13
0.0
 23
0.0
 14
0.5
 24
0.5
 15
0.5
 25
0.5
 16
0.0
 26
0.0
 36
1.0
 17
0.0
 27
0.0
 37
0.0
 40
2644.500053091542
 41
2.128074639525021
 42
50.0
 43
0.0
 44
0.0
 50
0.0
 51
0.0
 71
     0
 72
   100
 73
     1
 74
     3
 75
     0
 76
     0
 77
     0
 78
     0
281
     0
 65
     1
110
0.0
120
0.0
130
0.0
111
1.0
121
0.0
131
0.0
112
0.0
122
1.0
132
0.0
 79
     0
146
0.0
  0
ENDTAB
  0
TABLE
  2
LTYPE
  5
5
330
0
100
AcDbSymbolTable
 70
     1
  0
LTYPE
  5
14
330
5
100
AcDbSymbolTableRecord
100
AcDbLinetypeTableRecord
  2
ByBlock
 70
     0
  3

 72
    65
 73
     0
 40
0.0
  0
LTYPE
  5
15
330
5
100
AcDbSymbolTableRecord
100
AcDbLinetypeTableRecord
  2
ByLayer
 70
     0
  3

 72
    65
 73
     0
 40
0.0
  0
LTYPE
  5
16
330
5
100
AcDbSymbolTableRecord
100
AcDbLinetypeTableRecord
  2
Continuous
 70
     0
  3
Solid line
 72
    65
 73
     0
 40
0.0
  0
ENDTAB
  0
TABLE
  2
LAYER
  5
2
330
0
100
AcDbSymbolTable
 70
     2
  0
LAYER
  5
10
330
2
100
AcDbSymbolTableRecord
100
AcDbLayerTableRecord
  2
0
 70
     0
 62
     7
  6
Continuous
370
    -3
390
F
  0
LAYER
  5
3B
330
2
100
AcDbSymbolTableRecord
100
AcDbLayerTableRecord
  2
Table_Miura_9553-71_2D
 70
     0
 62
     7
  6
Continuous
370
    -3
390
F
  0
ENDTAB
  0
TABLE
  2
STYLE
  5
3
330
0
100
AcDbSymbolTable
 70
     1
  0
STYLE
  5
11
330
3
100
AcDbSymbolTableRecord
100
AcDbTextStyleTableRecord
  2
Standard
 70
     0
 40
0.0
 41
1.0
 50
0.0
 71
     0
 42
0.2
  3
txt
  4

  0
ENDTAB
  0
TABLE
  2
VIEW
  5
6
330
0
100
AcDbSymbolTable
 70
     0
  0
ENDTAB
  0
TABLE
  2
UCS
  5
7
330
0
100
AcDbSymbolTable
 70
     0
  0
ENDTAB
  0
TABLE
  2
APPID
  5
9
330
0
100
AcDbSymbolTable
 70
     1
  0
APPID
  5
12
330
9
100
AcDbSymbolTableRecord
100
AcDbRegAppTableRecord
  2
ACAD
 70
     0
  0
ENDTAB
  0
TABLE
  2
DIMSTYLE
  5
A
330
0
100
AcDbSymbolTable
 70
     1
100
AcDbDimStyleTable
 71
     0
  0
DIMSTYLE
105
27
330
A
100
AcDbSymbolTableRecord
100
AcDbDimStyleTableRecord
  2
Standard
 70
     0
340
11
  0
ENDTAB
  0
TABLE
  2
BLOCK_RECORD
  5
1
330
0
100
AcDbSymbolTable
 70
     1
  0
BLOCK_RECORD
  5
1F
330
1
100
AcDbSymbolTableRecord
100
AcDbBlockTableRecord
  2
*Model_Space
340
22
  0
BLOCK_RECORD
  5
1B
330
1
100
AcDbSymbolTableRecord
100
AcDbBlockTableRecord
  2
*Paper_Space
340
1E
  0
BLOCK_RECORD
  5
23
330
1
100
AcDbSymbolTableRecord
100
AcDbBlockTableRecord
  2
*Paper_Space0
340
26
  0
ENDTAB
  0
ENDSEC
  0
SECTION
  2
BLOCKS
  0
BLOCK
  5
20
330
1F
100
AcDbEntity
  8
0
100
AcDbBlockBegin
  2
*Model_Space
 70
     0
 10
0.0
 20
0.0
 30
0.0
  3
*Model_Space
  1

  0
ENDBLK
  5
21
330
1F
100
AcDbEntity
  8
0
100
AcDbBlockEnd
  0
BLOCK
  5
1C
330
1B
100
AcDbEntity
 67
     1
  8
0
100
AcDbBlockBegin
  2
*Paper_Space
 70
     0
 10
0.0
 20
0.0
 30
0.0
  3
*Paper_Space
  1

  0
ENDBLK
  5
1D
330
1B
100
AcDbEntity
 67
     1
  8
0
100
AcDbBlockEnd
  0
BLOCK
  5
24
330
23
100
AcDbEntity
 67
     1
  8
0
100
AcDbBlockBegin
  2
*Paper_Space0
 70
     0
 10
0.0
 20
0.0
 30
0.0
  3
*Paper_Space0
  1

  0
ENDBLK
  5
25
330
23
100
AcDbEntity
 67
     1
  8
0
100
AcDbBlockEnd
  0
ENDSEC
  0
SECTION
  2
ENTITIES
  0
SPLINE
  5
3C
330
1F
100
AcDbEntity
  8
Table_Miura_9553-71_2D
100
AcDbSpline
210
0.0
220
0.0
230
1.0
 70
    24
 71
     2
 72
     6
 73
     3
 74
     0
 42
0.0000000001
 43
0.0000000001
 40
161.2196491568448
 40
161.2196491568448
 40
161.2196491568448
 40
203.6334854806771
 40
203.6334854806771
 40
203.6334854806771
 10
-25.13000115975209
 20
298.9456186854953
 30
0.0
 10
-25.13000115975219
 20
320.1525368474114
 30
0.0
 10
-25.13000115975228
 20
341.3594550093276
 30
0.0
  0
SPLINE
  5
3D
330
1F
100
AcDbEntity
  8
Table_Miura_9553-71_2D
100
AcDbSpline
210
0.0
220
0.0
230
1.0
 70
    24
 71
     2
 72
     6
 73
     3
 74
     0
 42
0.0000000001
 43
0.0000000001
 40
0.0
 40
0.0
 40
0.0
 40
42.41383595383542
 40
42.41383595383542
 40
42.41383595383542
 10
25.13000115975319
 20
341.3594550093279
 30
0.0
 10
25.13000115975319
 20
320.1525370324102
 30
0.0
 10
25.13000115975319
 20
298.9456190554925
 30
0.0
  0
SPLINE
  5
3E
330
1F
100
AcDbEntity
  8
Table_Miura_9553-71_2D
100
AcDbSpline
210
0.0
220
0.0
230
1.0
 70
    24
 71
     2
 72
     6
 73
     3
 74
     0
 42
0.0000000001
 43
0.0000000001
 40
161.2198702634188
 40
161.2198702634188
 40
161.2198702634188
 40
203.633708102275
 40
203.633708102275
 40
203.633708102275
 10
-246.3294982397535
 20
-171.2360279867047
 30
0.0
 10
-264.695228759975
 20
-181.8394874464187
 30
0.0
 10
-283.0609592801966
 20
-192.4429469061328
 30
0.0
  0
SPLINE
  5
3F
330
1F
100
AcDbEntity
  8
Table_Miura_9553-71_2D
100
AcDbSpline
210
0.0
220
0.0
230
1.0
 70
    24
 71
     2
 72
     6
 73
     3
 74
     0
 42
0.0000000001
 43
0.0000000001
 40
0.0
 40
0.0
 40
0.0
 40
42.41383803432785
 40
42.41383803432785
 40
42.41383803432785
 10
-308.1909604399316
 20
-148.9165081031656
 30
0.0
 10
-289.8252298350683
 20
-138.3130485945837
 30
0.0
 10
-271.459499230205
 20
-127.7095890860018
 30
0.0
  0
SPLINE
  5
40
330
1F
100
AcDbEntity
  8
Table_Miura_9553-71_2D
100
AcDbSpline
210
0.0
220
0.0
230
1.0
 70
    24
 71
     2
 72
     6
 73
     3
 74
     0
 42
0.0000000001
 43
0.0000000001
 40
161.2198902512439
 40
161.2198902512439
 40
161.2198902512439
 40
203.6337242888049
 40
203.6337242888049
 40
203.6337242888049
 10
271.4595026915257
 20
-127.7095910843955
 30
0.0
 10
289.8252315657382
 20
-138.3130495937857
 30
0.0
 10
308.1909604399507
 20
-148.9165081031759
 30
0.0
  0
SPLINE
  5
41
330
1F
100
AcDbEntity
  8
Table_Miura_9553-71_2D
100
AcDbSpline
210
0.0
220
0.0
230
1.0
 70
    24
 71
     2
 72
     6
 73
     3
 74
     0
 42
0.0000000001
 43
0.0000000001
 40
0.0
 40
0.0
 40
0.0
 40
42.41383421205824
 40
42.41383421205824
 40
42.41383421205824
 10
283.0609592801911
 20
-192.442946906129
 30
0.0
 10
264.6952303304191
 20
-181.8394883531144
 30
0.0
 10
246.3295013806471
 20
-171.2360298000998
 30
0.0
  0
LINE
  5
42
330
1F
100
AcDbEntity
  8
Table_Miura_9553-71_2D
100
AcDbLine
 10
2132.314571375739
 20
2270.537341294729
 30
0.0
 11
2132.314571375739
 21
1569.928846444704
 31
0.0
  0
LINE
  5
43
330
1F
100
AcDbEntity
  8
Table_Miura_9553-71_2D
100
AcDbLine
 10
2082.314818669513
 20
1569.928846444704
 30
0.0
 11
2082.314818669513
 21
2270.537341294729
 31
0.0
  0
LINE
  5
44
330
1F
100
AcDbEntity
  8
Table_Miura_9553-71_2D
100
AcDbLine
 10
1052.675604269006
 20
1569.329368887886
 30
0.0
 11
1052.675604274575
 21
2270.537200145494
 31
0.0
  0
LINE
  5
45
330
1F
100
AcDbEntity
  8
Table_Miura_9553-71_2D
100
AcDbLine
 10
1002.675573398235
 20
2270.537200145494
 30
0.0
 11
1002.676063424018
 21
1574.329368904135
 31
0.0
  0
LINE
  5
46
330
1F
100
AcDbEntity
  8
Table_Miura_9553-71_2D
100
AcDbLine
 10
25.06364015089579
 20
2270.537200150052
 30
0.0
 11
25.06364015089579
 21
1572.673584395977
 31
0.0
  0
LINE
  5
47
330
1F
100
AcDbEntity
  8
Table_Miura_9553-71_2D
100
AcDbLine
 10
-24.9361125553302
 20
1572.679837490211
 30
0.0
 11
-24.9361125553302
 21
2270.537200150054
 31
0.0
  0
SPLINE
  5
48
330
1F
100
AcDbEntity
  8
Table_Miura_9553-71_2D
100
AcDbSpline
210
0.0
220
0.0
230
1.0
 70
    24
 71
     2
 72
     6
 73
     3
 74
     0
 42
0.0000000001
 43
0.0000000001
 40
0.0
 40
0.0
 40
0.0
 40
588.7919438270396
 40
588.7919438270396
 40
588.7919438270396
 10
294.3959712515241
 20
2273.847774342376
 30
0.0
 10
-0.0000006619957276
 20
2273.847774342375
 30
0.0
 10
-294.3959725755155
 20
2273.847774342375
 30
0.0
  0
SPLINE
  5
49
330
1F
100
AcDbEntity
  8
Table_Miura_9553-71_2D
100
AcDbSpline
210
0.0
220
0.0
230
1.0
 70
    24
 71
     2
 72
     6
 73
     3
 74
     0
 42
0.0000000001
 43
0.0000000001
 40
0.0
 40
0.0
 40
0.0
 40
588.7919438270393
 40
588.7919438270393
 40
588.7919438270393
 10
733.2797525136122
 20
2273.847774337818
 30
0.0
 10
1027.675724427132
 20
2273.847774337818
 30
0.0
 10
1322.071696340652
 20
2273.847774337818
 30
0.0
  0
SPLINE
  5
4A
330
1F
100
AcDbEntity
  8
Table_Miura_9553-71_2D
100
AcDbSpline
210
0.0
220
0.0
230
1.0
 70
    28
 71
     2
 72
     8
 73
     5
 74
     0
 42
0.0000000001
 43
0.0000000001
 40
1.570796326794897
 40
1.570796326794897
 40
1.570796326794897
 40
3.14159243176656
 40
3.14159243176656
 40
4.71238898038469
 40
4.71238898038469
 40
4.71238898038469
 10
-268.6964245058111
 20
2292.537200180528
 30
0.0
 41
0.999999834553998
 10
-268.696418806597
 20
2292.537200180528
 30
0.0
 41
0.7071068639095721
 10
-0.0001079860717255
 20
2292.537200180529
 30
0.0
 41
1.0
 10
268.6963101577273
 20
2292.537200180528
 30
0.0
 41
0.7071067811865476
 10
268.6964231818206
 20
2292.537200180528
 30
0.0
 41
1.0
  0
SPLINE
  5
4B
330
1F
100
AcDbEntity
  8
Table_Miura_9553-71_2D
100
AcDbSpline
210
0.0
220
0.0
230
1.0
 70
     8
 71
     3
 72
    16
 73
    12
 74
     0
 42
0.0000000001
 43
0.0000000001
 40
0.0
 40
0.0
 40
0.0
 40
0.0
 40
4.392532133180091
 40
9.103232288622056
 40
14.02234326407663
 40
19.04528694088098
 40
24.05681992867796
 40
28.92208547605252
 40
33.53958554338401
 40
35.72768669358361
 40
37.82776312511805
 40
37.82776312511805
 40
37.82776312511805
 40
37.82776312511805
 10
268.6964231818206
 20
2292.537200180528
 30
0.0
 10
270.1609474654613
 20
2292.536872957359
 30
0.0
 10
273.1923945930719
 20
2292.26814631519
 30
0.0
 10
277.7506982928248
 20
2291.186207145521
 30
0.0
 10
282.3272997494178
 20
2289.453795873571
 30
0.0
 10
286.7505756946741
 20
2287.136909531653
 30
0.0
 10
290.8538667535138
 20
2284.322842888188
 30
0.0
 10
294.4815538054613
 20
2281.11737517198
 30
0.0
 10
297.0367913405271
 20
2278.170976566326
 30
0.0
 10
298.7117741869592
 20
2275.716654888315
 30
0.0
 10
299.4170550334015
 20
2274.472121699664
 30
0.0
 10
299.7340534861258
 20
2273.847874744481
 30
0.0
  0
SPLINE
  5
4C
330
1F
100
AcDbEntity
  8
Table_Miura_9553-71_2D
100
AcDbSpline
210
0.0
220
0.0
230
1.0
 70
    12
 71
     2
 72
     8
 73
     5
 74
     0
 42
0.0000000001
 43
0.0000000001
 40
0.0
 40
0.0
 40
0.0
 40
2.319453818996167
 40
2.319453818996167
 40
4.638907637992334
 40
4.638907637992334
 40
4.638907637992334
 10
299.7340534861258
 20
2273.847874744481
 30
0.0
 41
1.0
 10
300.3351960807644
 20
2272.723866490563
 30
0.0
 41
0.8700788288547897
 10
299.6799269955766
 20
2271.630533450048
 30
0.0
 41
1.0
 10
299.0246579103892
 20
2270.537200409532
 30
0.0
 41
0.8700788288547897
 10
297.749976823642
 20
2270.537200150054
 30
0.0
 41
1.0
  0
SPLINE
  5
4D
330
1F
100
AcDbEntity
  8
Table_Miura_9553-71_2D
100
AcDbSpline
210
0.0
220
0.0
230
1.0
 70
    24
 71
     3
 72
     8
 73
     4
 74
     0
 42
0.0000000001
 43
0.0000000001
 40
-297.7500321643741
 40
-297.7500321643741
 40
-297.7500321643741
 40
-297.7500321643741
 40
0.0
 40
0.0
 40
0.0
 40
0.0
 10
297.749976823642
 20
2270.537200150054
 30
0.0
 10
198.5001541496092
 20
2270.537200150061
 30
0.0
 10
99.24993385489916
 20
2270.537200150046
 30
0.0
 10
-0.0000006619959549
 20
2270.537200150054
 30
0.0
  0
SPLINE
  5
4E
330
1F
100
AcDbEntity
  8
Table_Miura_9553-71_2D
100
AcDbSpline
210
0.0
220
0.0
230
1.0
 70
    24
 71
     2
 72
     6
 73
     3
 74
     0
 42
0.0000000001
 43
0.0000000001
 40
-297.7499998255339
 40
-297.7499998255339
 40
-297.7499998255339
 40
0.0
 40
0.0
 40
0.0
 10
-0.0000006619959549
 20
2270.537200150054
 30
0.0
 10
-148.8750005953576
 20
2270.537200150054
 30
0.0
 10
-297.7500005287193
 20
2270.537200150054
 30
0.0
  0
SPLINE
  5
4F
330
1F
100
AcDbEntity
  8
Table_Miura_9553-71_2D
100
AcDbSpline
210
0.0
220
0.0
230
1.0
 70
    12
 71
     2
 72
     8
 73
     5
 74
     0
 42
0.0000000001
 43
0.0000000001
 40
0.0
 40
0.0
 40
0.0
 40
2.319454235652529
 40
2.319454235652529
 40
4.638908471305058
 40
4.638908471305058
 40
4.638908471305058
 10
-297.7500005287193
 20
2270.537200150054
 30
0.0
 41
1.0
 10
-299.0246595845272
 20
2270.537199791853
 30
0.0
 41
0.8700787094136284
 10
-299.6799288495465
 20
2271.630533132546
 30
0.0
 41
1.0
 10
-300.3351981145656
 20
2272.723866473238
 30
0.0
 41
0.8700787094136284
 10
-299.734054810117
 20
2273.847874744481
 30
0.0
 41
1.0
  0
SPLINE
  5
50
330
1F
100
AcDbEntity
  8
Table_Miura_9553-71_2D
100
AcDbSpline
210
0.0
220
0.0
230
1.0
 70
     8
 71
     3
 72
    16
 73
    12
 74
     0
 42
0.0000000001
 43
0.0000000001
 40
0.0
 40
0.0
 40
0.0
 40
0.0
 40
2.100011706664743
 40
4.288177581580502
 40
8.905661522679874
 40
13.77094318508056
 40
18.7824761728774
 40
23.8181115002753
 40
28.7371977410428
 40
33.4352310015213
 40
37.82776313447408
 40
37.82776313447408
 40
37.82776313447408
 40
37.82776313447408
 10
-299.734054810117
 20
2273.847874744481
 30
0.0
 10
-299.4170691722074
 20
2274.472102586526
 30
0.0
 10
-298.7117815471249
 20
2275.716636366489
 30
0.0
 10
-297.0368194133688
 20
2278.170956084869
 30
0.0
 10
-294.4815417056893
 20
2281.117371531614
 30
0.0
 10
-290.8538746983784
 20
2284.322837089433
 30
0.0
 10
-286.7470807797147
 20
2287.139309233948
 30
0.0
 10
-282.3196746726956
 20
2289.457510871268
 30
0.0
 10
-277.7425156392187
 20
2291.188489617819
 30
0.0
 10
-273.188174793996
 20
2292.268521068521
 30
0.0
 10
-270.1609499255403
 20
2292.536872403211
 30
0.0
 10
-268.6964245058111
 20
2292.537200180528
 30
0.0
  0
SPLINE
  5
51
330
1F
100
AcDbEntity
  8
Table_Miura_9553-71_2D
100
AcDbSpline
210
0.0
220
0.0
230
1.0
 70
     8
 71
     3
 72
    16
 73
    12
 74
     0
 42
0.0000000001
 43
0.0000000001
 40
0.0
 40
0.0
 40
0.0
 40
0.0
 40
2.100011706664479
 40
4.288177581580388
 40
8.905661522679489
 40
13.77094318508047
 40
18.7824761728772
 40
23.81811150027485
 40
28.73719774104189
 40
33.43523100152088
 40
37.82776313447054
 40
37.82776313447054
 40
37.82776313447054
 40
37.82776313447054
 10
1327.409778575254
 20
2273.847874739923
 30
0.0
 10
1327.092792937344
 20
2274.472102581961
 30
0.0
 10
1326.387505312262
 20
2275.716636361914
 30
0.0
 10
1324.712543178505
 20
2278.170956080291
 30
0.0
 10
1322.157265470825
 20
2281.117371527052
 30
0.0
 10
1318.529598463511
 20
2284.322837084871
 30
0.0
 10
1314.422804544847
 20
2287.139309229397
 30
0.0
 10
1309.99539843783
 20
2289.457510866709
 30
0.0
 10
1305.418239404354
 20
2291.188489613262
 30
0.0
 10
1300.863898559137
 20
2292.268521063963
 30
0.0
 10
1297.836673690678
 20
2292.536872398648
 30
0.0
 10
1296.372148270949
 20
2292.53720017597
 30
0.0
  0
SPLINE
  5
52
330
1F
100
AcDbEntity
  8
Table_Miura_9553-71_2D
100
AcDbSpline
210
0.0
220
0.0
230
1.0
 70
    28
 71
     2
 72
     8
 73
     5
 74
     0
 42
0.0000000001
 43
0.0000000001
 40
3.141592653589792
 40
3.141592653589792
 40
3.141592653589792
 40
4.712388758561456
 40
4.712388758561456
 40
6.283185307179585
 40
6.283185307179585
 40
6.283185307179585
 10
1296.372148270949
 20
2292.53720017597
 30
0.0
 41
0.9999998345539971
 10
1296.372142571733
 20
2292.53720017597
 30
0.0
 41
0.7071068639095724
 10
1027.675831751208
 20
2292.537200175971
 30
0.0
 41
1.0
 10
758.9794136074089
 20
2292.53720017597
 30
0.0
 41
0.7071067811865476
 10
758.9793062833329
 20
2292.537200175971
 30
0.0
 41
1.0
  0
SPLINE
  5
53
330
1F
100
AcDbEntity
  8
Table_Miura_9553-71_2D
100
AcDbSpline
210
0.0
220
0.0
230
1.0
 70
    12
 71
     2
 72
     8
 73
     5
 74
     0
 42
0.0000000001
 43
0.0000000001
 40
-2.333942272942015
 40
-2.333942272942015
 40
-2.333942272942015
 40
-1.570796326791452
 40
-1.570796326791452
 40
-0.7499821553027017
 40
-0.7499821553027017
 40
-0.7499821553027017
 10
758.9793062833329
 20
2292.537200175971
 30
0.0
 41
1.0
 10
750.4633070516242
 20
2292.537200750115
 30
0.0
 41
0.9283066535805387
 10
741.6354674989541
 20
2287.440445208018
 30
0.0
 41
1.0
 10
732.0199914781843
 20
2281.88894753904
 30
0.0
 41
0.9165718410445128
 10
727.9416702790491
 20
2273.847874739923
 30
0.0
 41
0.9999999999985467
  0
SPLINE
  5
54
330
1F
100
AcDbEntity
  8
Table_Miura_9553-71_2D
100
AcDbSpline
210
0.0
220
0.0
230
1.0
 70
    12
 71
     2
 72
     8
 73
     5
 74
     0
 42
0.0000000001
 43
0.0000000001
 40
-4.638908187950973
 40
-4.638908187950973
 40
-4.638908187950973
 40
-1.194157088631536
 40
-1.194157088631536
 40
0.0
 40
0.0
 40
0.0
 10
727.9416702790491
 20
2273.847874739923
 30
0.0
 41
1.0
 10
726.9220935383327
 20
2271.941157439075
 30
0.0
 41
0.7210358301631701
 10
728.7868451908309
 20
2270.846722377819
 30
0.0
 41
1.0
 10
729.3142242772567
 20
2270.537200106401
 30
0.0
 41
0.9649959954071059
 10
729.9257246757055
 20
2270.537200145496
 30
0.0
 41
0.9999999996643603
  0
SPLINE
  5
55
330
1F
100
AcDbEntity
  8
Table_Miura_9553-71_2D
100
AcDbSpline
210
0.0
220
0.0
230
1.0
 70
    24
 71
     3
 72
     8
 73
     4
 74
     0
 42
0.0000000001
 43
0.0000000001
 40
-595.4999996644971
 40
-595.4999996644971
 40
-595.4999996644971
 40
-595.4999996644971
 40
0.0
 40
0.0
 40
0.0
 40
0.0
 10
729.9257246757055
 20
2270.537200145496
 30
0.0
 10
928.4257245619846
 20
2270.537200145493
 30
0.0
 10
1126.925724448266
 20
2270.537200145494
 30
0.0
 10
1325.425724334551
 20
2270.537200145496
 30
0.0
  0
SPLINE
  5
56
330
1F
100
AcDbEntity
  8
Table_Miura_9553-71_2D
100
AcDbSpline
210
0.0
220
0.0
230
1.0
 70
    12
 71
     2
 72
     8
 73
     5
 74
     0
 42
0.0000000001
 43
0.0000000001
 40
0.0
 40
0.0
 40
0.0
 40
2.319454235896273
 40
2.319454235896273
 40
4.638908471792547
 40
4.638908471792547
 40
4.638908471792547
 10
1325.425724334551
 20
2270.537200145496
 30
0.0
 41
1.0
 10
1326.700383349336
 20
2270.537199787019
 30
0.0
 41
0.8700787093870323
 10
1327.355652614557
 20
2271.630533127779
 30
0.0
 41
1.0
 10
1328.010921879777
 20
2272.723866468538
 30
0.0
 41
0.8700787093870323
 10
1327.409778575254
 20
2273.847874739923
 30
0.0
 41
1.0
  0
SPLINE
  5
57
330
1F
100
AcDbEntity
  8
Table_Miura_9553-71_2D
100
AcDbSpline
210
0.0
220
0.0
230
1.0
 70
    24
 71
     2
 72
     6
 73
     3
 74
     0
 42
0.0000000001
 43
0.0000000001
 40
0.0
 40
0.0
 40
0.0
 40
268.6965254678749
 40
268.6965254678749
 40
268.6965254678749
 10
2107.315586244603
 20
2292.537341325203
 30
0.0
 10
2241.663851828548
 20
2292.537341325203
 30
0.0
 10
2376.012117412492
 20
2292.537341325203
 30
0.0
  0
SPLINE
  5
58
330
1F
100
AcDbEntity
  8
Table_Miura_9553-71_2D
100
AcDbSpline
210
0.0
220
0.0
230
1.0
 70
     8
 71
     3
 72
    16
 73
    12
 74
     0
 42
0.0000000001
 43
0.0000000001
 40
0.0
 40
0.0
 40
0.0
 40
0.0
 40
4.392532133188267
 40
9.103232288629868
 40
14.0223432640846
 40
19.04528694088856
 40
24.05681992868557
 40
28.92208547606001
 40
33.5395855433916
 40
35.72768669359166
 40
37.82776312512593
 40
37.82776312512593
 40
37.82776312512593
 40
37.82776312512593
 10
2376.012117412492
 20
2292.537341325203
 30
0.0
 10
2377.476641696134
 20
2292.537014102028
 30
0.0
 10
2380.508088823744
 20
2292.268287459859
 30
0.0
 10
2385.066392523505
 20
2291.186348290194
 30
0.0
 10
2389.64299398009
 20
2289.453937018243
 30
0.0
 10
2394.066269925343
 20
2287.137050676331
 30
0.0
 10
2398.169560984185
 20
2284.322984032856
 30
0.0
 10
2401.797248036131
 20
2281.117516316643
 30
0.0
 10
2404.352485571204
 20
2278.171117710996
 30
0.0
 10
2406.027468417633
 20
2275.716796032983
 30
0.0
 10
2406.732749264076
 20
2274.472262844334
 30
0.0
 10
2407.049747716801
 20
2273.848015889156
 30
0.0
  0
SPLINE
  5
59
330
1F
100
AcDbEntity
  8
Table_Miura_9553-71_2D
100
AcDbSpline
210
0.0
220
0.0
230
1.0
 70
    12
 71
     2
 72
     8
 73
     5
 74
     0
 42
0.0000000001
 43
0.0000000001
 40
0.0
 40
0.0
 40
0.0
 40
2.319453823194609
 40
2.319453823194609
 40
4.638907637766997
 40
4.638907637766997
 40
4.638907637766997
 10
2407.049747716801
 20
2273.848015889156
 30
0.0
 41
1.0
 10
2407.650890311405
 20
2272.724007635304
 30
0.0
 41
0.8700788288671287
 10
2406.995621226309
 20
2271.63067459482
 30
0.0
 41
1.0
 10
2406.340352144014
 20
2270.537341559007
 30
0.0
 41
0.8700788293500909
 10
2405.065693484838
 20
2270.53734129473
 30
0.0
 41
0.9999999990340752
  0
SPLINE
  5
5A
330
1F
100
AcDbEntity
  8
Table_Miura_9553-71_2D
100
AcDbSpline
210
0.0
220
0.0
230
1.0
 70
    24
 71
     2
 72
     6
 73
     3
 74
     0
 42
0.0000000001
 43
0.0000000001
 40
0.0
 40
0.0
 40
0.0
 40
297.7499999244041
 40
297.7499999244041
 40
297.7499999244041
 10
2405.065693484838
 20
2270.53734129473
 30
0.0
 10
2256.190693526758
 20
2270.537341294729
 30
0.0
 10
2107.315693568679
 20
2270.537341294729
 30
0.0
  0
SPLINE
  5
5B
330
1F
100
AcDbEntity
  8
Table_Miura_9553-71_2D
100
AcDbSpline
210
0.0
220
0.0
230
1.0
 70
    24
 71
     2
 72
     6
 73
     3
 74
     0
 42
0.0000000001
 43
0.0000000001
 40
0.0
 40
0.0
 40
0.0
 40
297.7500000721692
 40
297.7500000721692
 40
297.7500000721692
 10
2107.315693568679
 20
2270.537341294729
 30
0.0
 10
1958.440693573743
 20
2270.537341294729
 30
0.0
 10
1809.565693578806
 20
2270.537341294729
 30
0.0
  0
SPLINE
  5
5C
330
1F
100
AcDbEntity
  8
Table_Miura_9553-71_2D
100
AcDbSpline
210
0.0
220
0.0
230
1.0
 70
    12
 71
     2
 72
     8
 73
     5
 74
     0
 42
0.0000000001
 43
0.0000000001
 40
0.0
 40
0.0
 40
0.0
 40
2.319454192792394
 40
2.319454192792394
 40
4.638908471641042
 40
4.638908471641042
 40
4.638908471641042
 10
1809.565693578806
 20
2270.537341294729
 30
0.0
 41
0.9999999903593367
 10
1808.291034618431
 20
2270.537340982961
 30
0.0
 41
0.8700787142156103
 10
1807.635765381215
 20
2271.630674277077
 30
0.0
 41
1.0
 10
1806.980496116057
 20
2272.724007617815
 30
0.0
 41
0.8700787093952785
 10
1807.581639420558
 20
2273.848015889156
 30
0.0
 41
1.0
  0
SPLINE
  5
5D
330
1F
100
AcDbEntity
  8
Table_Miura_9553-71_2D
100
AcDbSpline
210
0.0
220
0.0
230
1.0
 70
     8
 71
     3
 72
    16
 73
    12
 74
     0
 42
0.0000000001
 43
0.0000000001
 40
0.0
 40
0.0
 40
0.0
 40
0.0
 40
2.100011706664469
 40
4.288177581580433
 40
8.905661522679514
 40
13.77094318508079
 40
18.78247617287746
 40
23.81811150027537
 40
28.7371977410428
 40
33.4352310015214
 40
37.82776313447545
 40
37.82776313447545
 40
37.82776313447545
 40
37.82776313447545
 10
1807.581639420558
 20
2273.848015889156
 30
0.0
 10
1807.898625058467
 20
2274.472243731195
 30
0.0
 10
1808.603912683549
 20
2275.716777511162
 30
0.0
 10
1810.278874817306
 20
2278.171097229538
 30
0.0
 10
1812.834152524987
 20
2281.117512676289
 30
0.0
 10
1816.461819532301
 20
2284.322978234107
 30
0.0
 10
1820.568613450965
 20
2287.139450378625
 30
0.0
 10
1824.996019557982
 20
2289.457652015941
 30
0.0
 10
1829.573178591457
 20
2291.18863076249
 30
0.0
 10
1834.127519436676
 20
2292.268662213194
 30
0.0
 10
1837.154744305137
 20
2292.537013547884
 30
0.0
 10
1838.619269724865
 20
2292.537341325203
 30
0.0
  0
SPLINE
  5
5E
330
1F
100
AcDbEntity
  8
Table_Miura_9553-71_2D
100
AcDbSpline
210
0.0
220
0.0
230
1.0
 70
    28
 71
     2
 72
     6
 73
     3
 74
     0
 42
0.0000000001
 43
0.0000000001
 40
4.71238898038469
 40
4.71238898038469
 40
4.71238898038469
 40
6.283185307179585
 40
6.283185307179585
 40
6.283185307179585
 10
1838.619269724865
 20
2292.537341325203
 30
0.0
 41
0.9999998345539975
 10
1838.619275424078
 20
2292.537341325203
 30
0.0
 41
0.7071068639095721
 10
2107.315586244603
 20
2292.537341325203
 30
0.0
 41
1.0
  0
SPLINE
  5
5F
330
1F
100
AcDbEntity
  8
Table_Miura_9553-71_2D
100
AcDbSpline
210
0.0
220
0.0
230
1.0
 70
    24
 71
     2
 72
     6
 73
     3
 74
     0
 42
0.0000000001
 43
0.0000000001
 40
0.0
 40
0.0
 40
0.0
 40
294.3961865616712
 40
294.3961865616712
 40
294.3961865616712
 10
2401.711665482199
 20
2273.847915487052
 30
0.0
 10
2254.513572201363
 20
2273.847915487052
 30
0.0
 10
2107.315478920528
 20
2273.847915487052
 30
0.0
  0
SPLINE
  5
60
330
1F
100
AcDbEntity
  8
Table_Miura_9553-71_2D
100
AcDbSpline
210
0.0
220
0.0
230
1.0
 70
    24
 71
     2
 72
     6
 73
     3
 74
     0
 42
0.0000000001
 43
0.0000000001
 40
0.0
 40
0.0
 40
0.0
 40
294.3957572653686
 40
294.3957572653686
 40
294.3957572653686
 10
2107.315478920528
 20
2273.847915487052
 30
0.0
 10
1960.117600287843
 20
2273.847915487052
 30
0.0
 10
1812.919721655159
 20
2273.847915487052
 30
0.0
  0
SPLINE
  5
61
330
1F
100
AcDbEntity
  8
Table_Miura_9553-71_2D
100
AcDbSpline
210
0.0
220
0.0
230
1.0
 70
    12
 71
     2
 72
     6
 73
     3
 74
     0
 42
0.0000000001
 43
0.0000000001
 40
0.0
 40
0.0
 40
0.0
 40
3.028274426341321
 40
3.028274426341321
 40
3.028274426341321
 10
2082.240044846877
 20
1519.96709330518
 30
0.0
 41
1.0
 10
2082.187689844158
 20
1518.453724835362
 30
0.0
 41
0.9998646962170749
 10
2082.185145042728
 20
1516.939453163655
 30
0.0
 41
1.0
  0
SPLINE
  5
62
330
1F
100
AcDbEntity
  8
Table_Miura_9553-71_2D
100
AcDbSpline
210
0.0
220
0.0
230
1.0
 70
     8
 71
     3
 72
     8
 73
     4
 74
     0
 42
0.0000000001
 43
0.0000000001
 40
-17.56166272600342
 40
-17.56166272600342
 40
-17.56166272600342
 40
-17.56166272600342
 40
0.0
 40
0.0
 40
0.0
 40
0.0
 10
2082.185145042728
 20
1516.939453163655
 30
0.0
 10
2082.185145053841
 20
1511.08556558832
 30
0.0
 10
2082.185143881442
 20
1505.139924277497
 30
0.0
 10
2082.185143881442
 20
1499.286036702162
 30
0.0
  0
SPLINE
  5
63
330
1F
100
AcDbEntity
  8
Table_Miura_9553-71_2D
100
AcDbSpline
210
0.0
220
0.0
230
1.0
 70
    24
 71
     2
 72
     6
 73
     3
 74
     0
 42
0.0000000001
 43
0.0000000001
 40
-297.6614457198009
 40
-297.6614457198009
 40
-297.6614457198009
 40
0.0
 40
0.0
 40
0.0
 10
2082.185143881442
 20
1499.286036702162
 30
0.0
 10
2082.185143881442
 20
1350.455313842262
 30
0.0
 10
2082.185143881442
 20
1201.624590982361
 30
0.0
  0
POLYLINE
  5
64
330
1F
100
AcDbEntity
  8
Table_Miura_9553-71_2D
100
AcDb2dPolyline
 66
     1
 10
0.0
 20
0.0
 30
0.0
  0
VERTEX
  5
65
330
64
100
AcDbEntity
  8
Table_Miura_9553-71_2D
100
AcDbVertex
100
AcDb2dVertex
 10
2082.185143881442
 20
1201.624590982361
 30
0.0
  0
VERTEX
  5
66
330
64
100
AcDbEntity
  8
Table_Miura_9553-71_2D
100
AcDbVertex
100
AcDb2dVertex
 10
2132.444246163811
 20
1201.624590982361
 30
0.0
  0
SEQEND
  5
67
330
64
100
AcDbEntity
  8
Table_Miura_9553-71_2D
  0
SPLINE
  5
68
330
1F
100
AcDbEntity
  8
Table_Miura_9553-71_2D
100
AcDbSpline
210
0.0
220
0.0
230
1.0
 70
    24
 71
     2
 72
     6
 73
     3
 74
     0
 42
0.0000000001
 43
0.0000000001
 40
0.0
 40
0.0
 40
0.0
 40
297.6614457198009
 40
297.6614457198009
 40
297.6614457198009
 10
2132.444246163811
 20
1201.624590982361
 30
0.0
 10
2132.444246163811
 20
1350.455313842262
 30
0.0
 10
2132.444246163811
 20
1499.286036702162
 30
0.0
  0
SPLINE
  5
69
330
1F
100
AcDbEntity
  8
Table_Miura_9553-71_2D
100
AcDbSpline
210
0.0
220
0.0
230
1.0
 70
     8
 71
     3
 72
     8
 73
     4
 74
     0
 42
0.0000000001
 43
0.0000000001
 40
0.0
 40
0.0
 40
0.0
 40
0.0
 40
17.56166272600342
 40
17.56166272600342
 40
17.56166272600342
 40
17.56166272600342
 10
2132.444246163811
 20
1499.286036702162
 30
0.0
 10
2132.444246163811
 20
1505.139924277497
 30
0.0
 10
2132.444244991412
 20
1511.08556558832
 30
0.0
 10
2132.444245002525
 20
1516.939453163655
 30
0.0
  0
SPLINE
  5
6A
330
1F
100
AcDbEntity
  8
Table_Miura_9553-71_2D
100
AcDbSpline
210
0.0
220
0.0
230
1.0
 70
    12
 71
     2
 72
     6
 73
     3
 74
     0
 42
0.0000000001
 43
0.0000000001
 40
-3.028274426341321
 40
-3.028274426341321
 40
-3.028274426341321
 40
0.0
 40
0.0
 40
0.0
 10
2132.444245002525
 20
1516.939453163655
 30
0.0
 41
1.0
 10
2132.441700201095
 20
1518.453724835362
 30
0.0
 41
0.9998646962170749
 10
2132.389345198376
 20
1519.96709330518
 30
0.0
 41
1.0
  0
SPLINE
  5
6B
330
1F
100
AcDbEntity
  8
Table_Miura_9553-71_2D
100
AcDbSpline
210
0.0
220
0.0
230
1.0
 70
    12
 71
     3
 72
    15
 73
    11
 74
     0
 42
0.0000000001
 43
0.0000000001
 40
-2.500401592028198
 40
-2.500401592028198
 40
-2.500401592028198
 40
-2.500401592028198
 40
-2.092447594524907
 40
-1.587472916212024
 40
-0.9787609925742227
 40
-0.6090244151814629
 40
0.0
 40
0.0
 40
0.0
 40
0.3719149623461165
 40
0.3719149623461165
 40
0.3719149623461165
 40
0.3719149623461165
 10
2132.314571375737
 20
1572.673536506239
 30
0.0
 41
1.0
 10
2132.333873768725
 20
1572.538921274948
 30
0.0
 41
1.0
 10
2132.367625349154
 20
1572.236407569072
 30
0.0
 41
1.0
 10
2132.4036760937
 20
1571.730412484012
 30
0.0
 41
1.0
 10
2132.426767356887
 20
1571.236461431254
 30
0.0
 41
1.0
 10
2132.446839508726
 20
1570.707685163573
 30
0.0
 41
1.0
 10
2132.457983781932
 20
1570.377077286878
 30
0.0
 41
1.0
 10
2132.465020225131
 20
1570.174191701749
 30
0.0
 41
1.0
 10
2132.469317207461
 20
1570.050294478418
 30
0.0
 41
0.9999990251576335
 10
2132.473378442858
 20
1569.920450917215
 30
0.0
 41
0.9999990251576335
 10
2132.478779593933
 20
1569.796596916175
 30
0.0
 41
1.0
  0
SPLINE
  5
6C
330
1F
100
AcDbEntity
  8
Table_Miura_9553-71_2D
100
AcDbSpline
210
0.0
220
0.0
230
1.0
 70
    12
 71
     2
 72
     6
 73
     3
 74
     0
 42
0.0000000001
 43
0.0000000001
 40
-0.8893486808566594
 40
-0.8893486808566594
 40
-0.8893486808566594
 40
0.0
 40
0.0
 40
0.0
 10
2132.478779593933
 20
1569.796596916175
 30
0.0
 41
1.0
 10
2132.503050898345
 20
1569.240030710221
 30
0.0
 41
0.999995344343841
 10
2132.522987187162
 20
1568.795802119424
 30
0.0
 41
1.0
  0
SPLINE
  5
6D
330
1F
100
AcDbEntity
  8
Table_Miura_9553-71_2D
100
AcDbSpline
210
0.0
220
0.0
230
1.0
 70
     8
 71
     3
 72
    16
 73
    12
 74
     0
 42
0.0000000001
 43
0.0000000001
 40
-44.08091113805039
 40
-44.08091113805039
 40
-44.08091113805039
 40
-44.08091113805039
 40
-41.32262018863005
 40
-38.57568005800472
 40
-32.83955618066763
 40
-27.18774927002762
 40
-21.55559266881473
 40
-10.57964571019579
 40
-5.268782545111494
 40
-2.760660175474776
 40
0.0
 40
0.0
 40
0.0
 40
0.0
 10
2132.522987187162
 20
1568.795802119424
 30
0.0
 10
2132.564207446453
 20
1567.877315340609
 30
0.0
 10
2132.673493133903
 20
1566.045213796101
 30
0.0
 10
2133.025588536196
 20
1562.314162335739
 30
0.0
 10
2133.682946687562
 20
1557.646492015521
 30
0.0
 10
2134.81588382386
 20
1552.08448998644
 30
0.0
 10
2136.745982740534
 20
1544.916577409492
 30
0.0
 10
2139.302260665905
 20
1538.05582445704
 30
0.0
 10
2142.069270984433
 20
1532.430443929324
 30
0.0
 10
2143.789535639929
 20
1529.351502084425
 30
0.0
 10
2144.722591417723
 20
1527.829560849036
 30
0.0
 10
2145.206377601508
 20
1527.046941945725
 30
0.0
  0
SPLINE
  5
6E
330
1F
100
AcDbEntity
  8
Table_Miura_9553-71_2D
100
AcDbSpline
210
0.0
220
0.0
230
1.0
 70
     8
 71
     3
 72
    18
 73
    14
 74
     0
 42
0.0000000001
 43
0.0000000001
 40
-23.989786789493
 40
-23.989786789493
 40
-23.989786789493
 40
-23.989786789493
 40
-22.58263901442267
 40
-21.34373030388689
 40
-18.62944873608983
 40
-13.20000755298573
 40
-11.39409917538949
 40
-8.514888277655797
 40
-6.682465050476555
 40
-5.425659454196718
 40
-3.282334438373457
 40
-1.290606615411303
 40
0.0
 40
0.0
 40
0.0
 40
0.0
 10
2145.206377601508
 20
1527.046941945725
 30
0.0
 10
2145.453006405514
 20
1526.647971552222
 30
0.0
 10
2145.918239341972
 20
1525.898599230752
 30
0.0
 10
2146.884618016303
 20
1524.395642028954
 30
0.0
 10
2148.630010084506
 20
1521.800091019228
 30
0.0
 10
2150.590550889901
 20
1519.123595317426
 30
0.0
 10
2152.677933669043
 20
1516.475796573661
 30
0.0
 10
2154.064014886774
 20
1514.802609869853
 30
0.0
 10
2155.358601219295
 20
1513.291979147816
 30
0.0
 10
2156.503691787048
 20
1511.976286748764
 30
0.0
 10
2157.684465000375
 20
1510.621320505309
 30
0.0
 10
2158.86709423659
 20
1509.252987054032
 30
0.0
 10
2159.597225647979
 20
1508.408394533435
 30
0.0
 10
2159.878861650151
 20
1508.083189289898
 30
0.0
  0
SPLINE
  5
6F
330
1F
100
AcDbEntity
  8
Table_Miura_9553-71_2D
100
AcDbSpline
210
0.0
220
0.0
230
1.0
 70
    24
 71
     2
 72
     6
 73
     3
 74
     0
 42
0.0000000001
 43
0.0000000001
 40
-405.407916564433
 40
-405.407916564433
 40
-405.407916564433
 40
0.0
 40
0.0
 40
0.0
 10
2159.87886165015
 20
1508.083189289898
 30
0.0
 10
2292.579751959212
 20
1354.85339971078
 30
0.0
 10
2425.280642268274
 20
1201.623610131662
 30
0.0
  0
POLYLINE
  5
70
330
1F
100
AcDbEntity
  8
Table_Miura_9553-71_2D
100
AcDb2dPolyline
 66
     1
 10
0.0
 20
0.0
 30
0.0
  0
VERTEX
  5
71
330
70
100
AcDbEntity
  8
Table_Miura_9553-71_2D
100
AcDbVertex
100
AcDb2dVertex
 10
2425.280642268274
 20
1201.623610131662
 30
0.0
  0
VERTEX
  5
72
330
70
100
AcDbEntity
  8
Table_Miura_9553-71_2D
100
AcDbVertex
100
AcDb2dVertex
 10
2380.612208156211
 20
1201.623933864351
 30
0.0
  0
SEQEND
  5
73
330
70
100
AcDbEntity
  8
Table_Miura_9553-71_2D
  0
SPLINE
  5
74
330
1F
100
AcDbEntity
  8
Table_Miura_9553-71_2D
100
AcDbSpline
210
0.0
220
0.0
230
1.0
 70
    24
 71
     2
 72
     6
 73
     3
 74
     0
 42
0.0000000001
 43
0.0000000001
 40
-379.0828237665146
 40
-379.0828237665146
 40
-379.0828237665146
 40
0.0
 40
0.0
 40
0.0
 10
2380.612208156211
 20
1201.623933864351
 30
0.0
 10
2256.528227160011
 20
1344.903773614517
 30
0.0
 10
2132.444246163811
 20
1488.183613364684
 30
0.0
  0
SPLINE
  5
75
330
1F
100
AcDbEntity
  8
Table_Miura_9553-71_2D
100
AcDbSpline
210
0.0
220
0.0
230
1.0
 70
     8
 71
     3
 72
    13
 73
     9
 74
     0
 42
0.0000000001
 43
0.0000000001
 40
0.0
 40
0.0
 40
0.0
 40
0.0
 40
0.0787536068012881
 40
0.1449423458634473
 40
0.266120321626831
 40
0.3853723078620238
 40
0.4472243187928732
 40
0.5284135023430946
 40
0.5284135023430946
 40
0.5284135023430946
 40
0.5284135023430946
 10
2381.093232652154
 20
1201.624210261639
 30
0.0
 10
2381.067044002814
 20
1201.623647002501
 30
0.0
 10
2381.018524168103
 20
1201.619153982204
 30
0.0
 10
2380.933893283823
 20
1201.591597564634
 30
0.0
 10
2380.856694401054
 20
1201.514642244954
 30
0.0
 10
2380.851817641729
 20
1201.407173021661
 30
0.0
 10
2380.891098737961
 20
1201.32813664934
 30
0.0
 10
2380.92164355606
 20
1201.291315636337
 30
0.0
 10
2380.93957753701
 20
1201.271023965196
 30
0.0
  0
SPLINE
  5
76
330
1F
100
AcDbEntity
  8
Table_Miura_9553-71_2D
100
AcDbSpline
210
0.0
220
0.0
230
1.0
 70
    24
 71
     2
 72
     6
 73
     3
 74
     0
 42
0.0000000001
 43
0.0000000001
 40
0.0
 40
0.0
 40
0.0
 40
0.5244136134750971
 40
0.5244136134750971
 40
0.5244136134750971
 10
2380.93957753701
 20
1201.271023965196
 30
0.0
 10
2381.111331998172
 20
1201.072699090242
 30
0.0
 10
2381.283086459335
 20
1200.874374215288
 30
0.0
  0
SPLINE
  5
77
330
1F
100
AcDbEntity
  8
Table_Miura_9553-71_2D
100
AcDbSpline
210
0.0
220
0.0
230
1.0
 70
     8
 71
     3
 72
    12
 73
     8
 74
     0
 42
0.0000000001
 43
0.0000000001
 40
0.0
 40
0.0
 40
0.0
 40
0.0
 40
0.2152508561583033
 40
0.4345163837059823
 40
1.01494970701215
 40
1.738429140534348
 40
2.240363334908872
 40
2.240363334908872
 40
2.240363334908872
 40
2.240363334908872
 10
2381.283086459335
 20
1200.874374215288
 30
0.0
 10
2381.330125599387
 20
1200.819825480883
 30
0.0
 10
2381.425963925163
 20
1200.711169468006
 30
0.0
 10
2381.662320212684
 20
1200.468985483378
 30
0.0
 10
2382.034325740578
 20
1200.123235237461
 30
0.0
 10
2382.488127348714
 20
1199.727729976812
 30
0.0
 10
2382.806339319349
 20
1199.471328442451
 30
0.0
 10
2382.94297976923
 20
1199.374567039144
 30
0.0
  0
SPLINE
  5
78
330
1F
100
AcDbEntity
  8
Table_Miura_9553-71_2D
100
AcDbSpline
210
0.0
220
0.0
230
1.0
 70
     8
 71
     3
 72
    12
 73
     8
 74
     0
 42
0.0000000001
 43
0.0000000001
 40
0.0
 40
0.0
 40
0.0
 40
0.0
 40
2.849423647238892
 40
5.573258475154478
 40
11.17057419198277
 40
16.6544972940824
 40
22.23406149512204
 40
22.23406149512204
 40
22.23406149512204
 40
22.23406149512204
 10
2382.94297976923
 20
1199.374567039144
 30
0.0
 10
2383.715210537009
 20
1198.821479283193
 30
0.0
 10
2385.267672505021
 20
1197.79861341385
 30
0.0
 10
2388.524106450034
 20
1195.987822814118
 30
0.0
 10
2392.786432185848
 20
1194.217495453979
 30
0.0
 10
2398.195081255176
 20
1192.888664136913
 30
0.0
 10
2401.879322220186
 20
1192.561450275241
 30
0.0
 10
2403.739041802102
 20
1192.539728204578
 30
0.0
  0
SPLINE
  5
79
330
1F
100
AcDbEntity
  8
Table_Miura_9553-71_2D
100
AcDbSpline
210
0.0
220
0.0
230
1.0
 70
     8
 71
     5
 72
    12
 73
     6
 74
     0
 42
0.0000000001
 43
0.0000000001
 40
-1.0
 40
-1.0
 40
-1.0
 40
-1.0
 40
-1.0
 40
-1.0
 40
0.0
 40
0.0
 40
0.0
 40
0.0
 40
0.0
 40
0.0
 10
2403.739041802102
 20
1192.539728204578
 30
0.0
 10
2403.821812026203
 20
1192.538761424062
 30
0.0
 10
2403.904585013232
 20
1192.538031189695
 30
0.0
 10
2403.987362543974
 20
1192.537590822231
 30
0.0
 10
2404.070138399927
 20
1192.537346181045
 30
0.0
 10
2404.152914269835
 20
1192.537341364264
 30
0.0
  0
SPLINE
  5
7A
330
1F
100
AcDbEntity
  8
Table_Miura_9553-71_2D
100
AcDbSpline
210
0.0
220
0.0
230
1.0
 70
     8
 71
     3
 72
    12
 73
     8
 74
     0
 42
0.0000000001
 43
0.0000000001
 40
0.0
 40
0.0
 40
0.0
 40
0.0
 40
2.782398956976483
 40
5.60255636646087
 40
11.31396921066574
 40
16.96595331393149
 40
22.64829073387322
 40
22.64829073387322
 40
22.64829073387322
 40
22.64829073387322
 10
2404.152914269835
 20
1192.537341364264
 30
0.0
 10
2405.08038643629
 20
1192.537287394068
 30
0.0
 10
2406.947868345437
 20
1192.609929180218
 30
0.0
 10
2410.696759813462
 20
1193.045646460289
 30
0.0
 10
2415.310934515052
 20
1194.141895626008
 30
0.0
 10
2420.582155211507
 20
1196.308316343617
 30
0.0
 10
2423.822940836851
 20
1198.272225565118
 30
0.0
 10
2425.36320919654
 20
1199.374625143123
 30
0.0
  0
SPLINE
  5
7B
330
1F
100
AcDbEntity
  8
Table_Miura_9553-71_2D
100
AcDbSpline
210
0.0
220
0.0
230
1.0
 70
     8
 71
     3
 72
    16
 73
    12
 74
     0
 42
0.0000000001
 43
0.0000000001
 40
0.0
 40
0.0
 40
0.0
 40
0.0
 40
0.1449268675943032
 40
0.2673386247060248
 40
0.5163843678365243
 40
0.7646474073394522
 40
0.9969847930951104
 40
1.194773719318494
 40
1.376962800151374
 40
1.556234553971886
 40
1.789638013214851
 40
1.789638013214851
 40
1.789638013214851
 40
1.789638013214851
 10
2425.36320919654
 20
1199.374625143123
 30
0.0
 10
2425.402583957063
 20
1199.402716853392
 30
0.0
 10
2425.474694681067
 20
1199.455155394935
 30
0.0
 10
2425.605266227559
 20
1199.5675767871
 30
0.0
 10
2425.743656166196
 20
1199.721930147689
 30
0.0
 10
2425.873516413742
 20
1199.928690182708
 30
0.0
 10
2425.95565584738
 20
1200.140738570438
 30
0.0
 10
2425.982640463753
 20
1200.344823385608
 30
0.0
 10
2425.953271655778
 20
1200.531143882239
 30
0.0
 10
2425.864737106267
 20
1200.710707128947
 30
0.0
 10
2425.774971341177
 20
1200.815839594554
 30
0.0
 10
2425.723943819779
 20
1200.874546441821
 30
0.0
  0
SPLINE
  5
7C
330
1F
100
AcDbEntity
  8
Table_Miura_9553-71_2D
100
AcDbSpline
210
0.0
220
0.0
230
1.0
 70
    24
 71
     2
 72
     6
 73
     3
 74
     0
 42
0.0000000001
 43
0.0000000001
 40
0.0
 40
0.0
 40
0.0
 40
0.5244495011186677
 40
0.5244495011186677
 40
0.5244495011186677
 10
2425.723943819779
 20
1200.874546441821
 30
0.0
 10
2425.552195454115
 20
1201.07286512214
 30
0.0
 10
2425.38044708845
 20
1201.271183802459
 30
0.0
  0
SPLINE
  5
7D
330
1F
100
AcDbEntity
  8
Table_Miura_9553-71_2D
100
AcDbSpline
210
0.0
220
0.0
230
1.0
 70
     8
 71
     3
 72
    12
 73
     8
 74
     0
 42
0.0000000001
 43
0.0000000001
 40
0.0
 40
0.0
 40
0.0
 40
0.0
 40
0.089002379783791
 40
0.1797960093880787
 40
0.4111935266141908
 40
0.6556287843907624
 40
0.8529822444616081
 40
0.8529822444616081
 40
0.8529822444616081
 40
0.8529822444616081
 10
2425.38044708845
 20
1201.271183802459
 30
0.0
 10
2425.361135126615
 20
1201.293911607313
 30
0.0
 10
2425.320341449361
 20
1201.338039667301
 30
0.0
 10
2425.211664808162
 20
1201.422292184803
 30
0.0
 10
2425.045143626127
 20
1201.512549363414
 30
0.0
 10
2424.835636644604
 20
1201.594349712418
 30
0.0
 10
2424.690117282698
 20
1201.622198560901
 30
0.0
 10
2424.624227033726
 20
1201.623982292172
 30
0.0
  0
SPLINE
  5
7E
330
1F
100
AcDbEntity
  8
Table_Miura_9553-71_2D
100
AcDbSpline
210
0.0
220
0.0
230
1.0
 70
    12
 71
     3
 72
    18
 73
    14
 74
     0
 42
0.0000000001
 43
0.0000000001
 40
-17.08061118246446
 40
-17.08061118246446
 40
-17.08061118246446
 40
-17.08061118246446
 40
-15.57895392647034
 40
-15.57895392647034
 40
-15.57895392647034
 40
-11.24807156559795
 40
-11.24807156559795
 40
-11.24807156559795
 40
-8.873594413233327
 40
-6.279800604855796
 40
-3.187801552011506
 40
-1.394045745757028
 40
0.0
 40
0.0
 40
0.0
 40
0.0
 10
2127.808945548166
 20
1569.328936085135
 30
0.0
 41
1.0
 10
2128.362794686788
 20
1569.310248647765
 30
0.0
 41
0.8207490813200227
 10
2128.754981857488
 20
1568.918563239851
 30
0.0
 41
0.8207490813200227
 10
2128.774607328336
 20
1568.364509769
 30
0.0
 41
1.0
 10
2128.82602274926
 20
1566.92147148097
 30
0.0
 41
0.9999156577956787
 10
2128.900397482076
 20
1565.479351341905
 30
0.0
 41
0.9999156577956787
 10
2128.997712707997
 20
1564.038514246579
 30
0.0
 41
1.0
 10
2129.050954650769
 20
1563.248166111955
 30
0.0
 41
1.0
 10
2129.175029455894
 20
1561.596682342967
 30
0.0
 41
1.0
 10
2129.415140749574
 20
1558.920618358695
 30
0.0
 41
1.0
 10
2129.66618069675
 20
1556.440078359189
 30
0.0
 41
1.0
 10
2129.890162208921
 20
1554.358825504654
 30
0.0
 41
1.0
 10
2130.008384210028
 20
1553.300684630323
 30
0.0
 41
1.0
 10
2130.062152010944
 20
1552.839121727086
 30
0.0
 41
1.0
  0
SPLINE
  5
7F
330
1F
100
AcDbEntity
  8
Table_Miura_9553-71_2D
100
AcDbSpline
210
0.0
220
0.0
230
1.0
 70
     8
 71
     3
 72
    16
 73
    12
 74
     0
 42
0.0000000001
 43
0.0000000001
 40
-33.3642801434906
 40
-33.3642801434906
 40
-33.3642801434906
 40
-33.3642801434906
 40
-24.17426881783292
 40
-19.70973193739507
 40
-17.41415730793448
 40
-12.69286067967022
 40
-10.39643749466709
 40
-6.695123544693318
 40
-3.023047667395002
 40
-1.441026840298903
 40
0.0
 40
0.0
 40
0.0
 40
0.0
 10
2130.062152010943
 20
1552.839121727086
 30
0.0
 10
2130.416611218807
 20
1549.796311378256
 30
0.0
 10
2131.025734343046
 20
1545.28526648213
 30
0.0
 10
2131.829853085985
 20
1540.029714027254
 30
0.0
 10
2132.427362631189
 20
1536.249484953666
 30
0.0
 10
2132.92114979834
 20
1533.184593880174
 30
0.0
 10
2133.47657738028
 20
1529.654986804299
 30
0.0
 10
2133.954480858836
 20
1526.467315152255
 30
0.0
 10
2134.339015252406
 20
1523.506742359012
 30
0.0
 10
2134.566026701515
 20
1521.286451929138
 30
0.0
 10
2134.646666736031
 20
1520.281955405835
 30
0.0
 10
2134.679004447953
 20
1519.802478824264
 30
0.0
  0
SPLINE
  5
80
330
1F
100
AcDbEntity
  8
Table_Miura_9553-71_2D
100
AcDbSpline
210
0.0
220
0.0
230
1.0
 70
     8
 71
     3
 72
    12
 73
     8
 74
     0
 42
0.0000000001
 43
0.0000000001
 40
-2.866008512548971
 40
-2.866008512548971
 40
-2.866008512548971
 40
-2.866008512548971
 40
-2.180350089160199
 40
-1.316467333291305
 40
-0.6436630852735567
 40
-0.3236325452860642
 40
0.0
 40
0.0
 40
0.0
 40
0.0
 10
2134.679004447953
 20
1519.802478824264
 30
0.0
 10
2134.694543092428
 20
1519.574231510008
 30
0.0
 10
2134.722142469742
 20
1519.058448927801
 30
0.0
 10
2134.75388837875
 20
1518.318329830783
 30
0.0
 10
2134.77129836625
 20
1517.699650905736
 30
0.0
 10
2134.777140253594
 20
1517.260856409906
 30
0.0
 10
2134.778365129622
 20
1517.046309000261
 30
0.0
 10
2134.778367322524
 20
1516.938418646728
 30
0.0
  0
SPLINE
  5
81
330
1F
100
AcDbEntity
  8
Table_Miura_9553-71_2D
100
AcDbSpline
210
0.0
220
0.0
230
1.0
 70
     8
 71
     3
 72
    13
 73
     9
 74
     0
 42
0.0000000001
 43
0.0000000001
 40
-8.067492795701003
 40
-8.067492795701003
 40
-8.067492795701003
 40
-8.067492795701003
 40
-6.929436622567084
 40
-5.933962300934527
 40
-4.014321351435199
 40
-2.037649979843422
 40
-1.015652899145925
 40
0.0
 40
0.0
 40
0.0
 40
0.0
 10
2134.778367322524
 20
1516.938418646728
 30
0.0
 10
2134.779020616566
 20
1516.559075665663
 30
0.0
 10
2134.765333035383
 20
1515.847698054072
 30
0.0
 10
2134.646707386862
 20
1514.500917384303
 30
0.0
 10
2134.30193199289
 20
1512.901024470387
 30
0.0
 10
2133.679513114542
 20
1511.377516751966
 30
0.0
 10
2133.024417689477
 20
1510.209897524898
 30
0.0
 10
2132.644381338478
 20
1509.645967931049
 30
0.0
 10
2132.444244995049
 20
1509.373024628587
 30
0.0
  0
SPLINE
  5
82
330
1F
100
AcDbEntity
  8
Table_Miura_9553-71_2D
100
AcDbSpline
210
0.0
220
0.0
230
1.0
 70
    12
 71
     3
 72
    12
 73
     8
 74
     0
 42
0.0000000001
 43
0.0000000001
 40
-0.5262507170806857
 40
-0.5262507170806857
 40
-0.5262507170806857
 40
-0.5262507170806857
 40
-0.5145170103963779
 40
-0.5145170103963779
 40
-0.2542829628112115
 40
-0.2542829628112115
 40
-0.0317448945959232
 40
-0.0317448945959232
 40
-0.0317448945959232
 40
-0.0317448945959232
 10
2128.441904196435
 20
1569.074842415153
 30
0.0
 41
1.0
 10
2128.444380874405
 20
1569.079279153118
 30
0.0
 41
1.0
 10
2128.446872211826
 20
1569.083648089659
 30
0.0
 41
1.0
 10
2128.504931069165
 20
1569.183296080753
 30
0.0
 41
1.0
 10
2128.564045137985
 20
1569.243424540949
 30
0.0
 41
1.0
 10
2128.667601378898
 20
1569.311243235474
 30
0.0
 41
1.0
 10
2128.71320259908
 20
1569.325719052101
 30
0.0
 41
1.0
 10
2128.756723532384
 20
1569.32884770855
 30
0.0
 41
1.0
  0
SPLINE
  5
83
330
1F
100
AcDbEntity
  8
Table_Miura_9553-71_2D
100
AcDbSpline
210
0.0
220
0.0
230
1.0
 70
     8
 71
     3
 72
    13
 73
     9
 74
     0
 42
0.0000000001
 43
0.0000000001
 40
0.0
 40
0.0
 40
0.0
 40
0.0
 40
0.0902184704601651
 40
0.1761896442498796
 40
0.3455632779639898
 40
0.4948657560424343
 40
0.5565632204593952
 40
0.6273565859503734
 40
0.6273565859503734
 40
0.6273565859503734
 40
0.6273565859503734
 10
2131.873998581167
 20
1201.623871067392
 30
0.0
 10
2131.904076266145
 20
1201.622814542173
 30
0.0
 10
2131.96264311351
 20
1201.617650862926
 30
0.0
 10
2132.074751535924
 20
1201.588733115614
 30
0.0
 10
2132.194904025447
 20
1201.524502101696
 30
0.0
 10
2132.282566888073
 20
1201.429019489985
 30
0.0
 10
2132.314418162936
 20
1201.339089633628
 30
0.0
 10
2132.315174887656
 20
1201.2945993567
 30
0.0
 10
2132.315163809024
 20
1201.271037514361
 30
0.0
  0
SPLINE
  5
84
330
1F
100
AcDbEntity
  8
Table_Miura_9553-71_2D
100
AcDbSpline
210
0.0
220
0.0
230
1.0
 70
    24
 71
     2
 72
     6
 73
     3
 74
     0
 42
0.0000000001
 43
0.0000000001
 40
0.0
 40
0.0
 40
0.0
 40
0.3964465280210447
 40
0.3964465280210447
 40
0.3964465280210447
 10
2132.315163809024
 20
1201.271037514361
 30
0.0
 10
2132.315150425924
 20
1201.072814250439
 30
0.0
 10
2132.315137042825
 20
1200.874590986517
 30
0.0
  0
SPLINE
  5
85
330
1F
100
AcDbEntity
  8
Table_Miura_9553-71_2D
100
AcDbSpline
210
0.0
220
0.0
230
1.0
 70
     8
 71
     3
 72
    17
 73
    13
 74
     0
 42
0.0000000001
 43
0.0000000001
 40
0.0
 40
0.0
 40
0.0
 40
0.0
 40
0.0962064271533508
 40
0.1738289297854392
 40
0.3373064891879649
 40
0.5367070411386231
 40
0.7755987407383972
 40
1.076140845210531
 40
1.396849041230197
 40
1.692620935227626
 40
1.823404523223936
 40
1.966221085738844
 40
1.966221085738844
 40
1.966221085738844
 40
1.966221085738844
 10
2132.315137042825
 20
1200.874590986517
 30
0.0
 10
2132.315220728752
 20
1200.842508361367
 30
0.0
 10
2132.314781215989
 20
1200.784572675999
 30
0.0
 10
2132.302079941818
 20
1200.672565905322
 30
0.0
 10
2132.259064117317
 20
1200.531309201283
 30
0.0
 10
2132.165185431859
 20
1200.353323868051
 30
0.0
 10
2132.02292667399
 20
1200.151900993045
 30
0.0
 10
2131.835089282296
 20
1199.934870267441
 30
0.0
 10
2131.617067621246
 20
1199.720342722911
 30
0.0
 10
2131.42639258943
 20
1199.559701810832
 30
0.0
 10
2131.272368729135
 20
1199.448656543218
 30
0.0
 10
2131.195352663185
 20
1199.399756510016
 30
0.0
 10
2131.15492872834
 20
1199.374578116862
 30
0.0
  0
SPLINE
  5
86
330
1F
100
AcDbEntity
  8
Table_Miura_9553-71_2D
100
AcDbSpline
210
0.0
220
0.0
230
1.0
 70
    24
 71
     2
 72
     6
 73
     3
 74
     0
 42
0.0000000001
 43
0.0000000001
 40
0.0
 40
0.0
 40
0.0
 40
0.0002028258160686
 40
0.0002028258160686
 40
0.0002028258160686
 10
2131.15492872834
 20
1199.374578116862
 30
0.0
 10
2131.154599676121
 20
1199.374371682015
 30
0.0
 10
2131.154270623902
 20
1199.374165247169
 30
0.0
  0
SPLINE
  5
87
330
1F
100
AcDbEntity
  8
Table_Miura_9553-71_2D
100
AcDbSpline
210
0.0
220
0.0
230
1.0
 70
     8
 71
     3
 72
    25
 73
    21
 74
     0
 42
0.0000000001
 43
0.0000000001
 40
0.0
 40
0.0
 40
0.0
 40
0.0
 40
3.199587773031224
 40
6.339228569859387
 40
12.50824278581488
 40
18.76926702610335
 40
21.92722116738235
 40
23.54279560344114
 40
24.35060102343449
 40
24.73612324148421
 40
24.93803802146848
 40
25.02982611215962
 40
25.08490533980845
 40
25.10555096506041
 40
25.11462558692914
 40
25.12056925615265
 40
25.12388541331136
 40
25.12423612731493
 40
25.12438763465248
 40
25.12589178241075
 40
25.12589178241075
 40
25.12589178241075
 40
25.12589178241075
 10
2131.154270623902
 20
1199.374165247169
 30
0.0
 10
2130.249306389652
 20
1198.808751557668
 30
0.0
 10
2128.41735123079
 20
1197.753061384705
 30
0.0
 10
2124.665752408385
 20
1195.92811150878
 30
0.0
 10
2119.777499356598
 20
1194.148622845462
 30
0.0
 10
2114.684224053462
 20
1193.058774014943
 30
0.0
 10
2111.024475146978
 20
1192.669283891739
 30
0.0
 10
2109.166425627674
 20
1192.569915417921
 30
0.0
 10
2108.230408650845
 20
1192.545358721669
 30
0.0
 10
2107.765373768652
 20
1192.539264503426
 30
0.0
 10
2107.538969210324
 20
1192.537824322177
 30
0.0
 10
2107.422711636462
 20
1192.537447212895
 30
0.0
 10
2107.366874013094
 20
1192.537366936014
 30
0.0
 10
2107.338608086819
 20
1192.537346183475
 30
0.0
 10
2107.32672014716
 20
1192.537342773407
 30
0.0
 10
2107.3206501081
 20
1192.53734151659
 30
0.0
 10
2107.31727230238
 20
1192.53734145725
 30
0.0
 10
2107.316645277232
 20
1192.537341297204
 30
0.0
 10
2107.316634740486
 20
1192.537341381801
 30
0.0
 10
2107.315871642575
 20
1192.537341362426
 30
0.0
 10
2107.315383306098
 20
1192.537341364894
 30
0.0
  0
SPLINE
  5
88
330
1F
100
AcDbEntity
  8
Table_Miura_9553-71_2D
100
AcDbSpline
210
0.0
220
0.0
230
1.0
 70
     8
 71
     3
 72
    24
 73
    20
 74
     0
 42
0.0000000001
 43
0.0000000001
 40
0.0
 40
0.0
 40
0.0
 40
0.0
 40
0.0020036010011362
 40
0.0022547111983818
 40
0.0025058213949665
 40
0.0056257993940696
 40
0.01124053246391
 40
0.0196887687649597
 40
0.0391810618565542
 40
0.0782064054598164
 40
0.188361477556041
 40
0.3719392572807771
 40
0.7758219389144187
 40
1.546888493465523
 40
3.125770128968858
 40
6.302017912663968
 40
12.52633999462964
 40
18.76876323914055
 40
25.12624730574043
 40
25.12624730574043
 40
25.12624730574043
 40
25.12624730574043
 10
2107.315383306098
 20
1192.537341364894
 30
0.0
 10
2107.314713341161
 20
1192.537341362483
 30
0.0
 10
2107.313763263881
 20
1192.537341390325
 30
0.0
 10
2107.313590703277
 20
1192.537341299702
 30
0.0
 10
2107.313393300779
 20
1192.537341423744
 30
0.0
 10
2107.309539970327
 20
1192.537341589314
 30
0.0
 10
2107.304409430493
 20
1192.537342426415
 30
0.0
 10
2107.29276277324
 20
1192.537346152485
 30
0.0
 10
2107.27099079225
 20
1192.53736009352
 30
0.0
 10
2107.214266056583
 20
1192.537432566843
 30
0.0
 10
2107.103648474397
 20
1192.537760278517
 30
0.0
 10
2106.870959245731
 20
1192.539211618313
 30
0.0
 10
2106.418237083764
 20
1192.545011774285
 30
0.0
 10
2105.500531579784
 20
1192.568803607297
 30
0.0
 10
2103.660741571644
 20
1192.66481478554
 30
0.0
 10
2100.018703413633
 20
1193.0473382542
 30
0.0
 10
2094.905775601914
 20
1194.132440650328
 30
0.0
 10
2088.992827236649
 20
1196.276987481352
 30
0.0
 10
2085.273891499357
 20
1198.251141628783
 30
0.0
 10
2083.47596766699
 20
1199.3741992463
 30
0.0
  0
SPLINE
  5
89
330
1F
100
AcDbEntity
  8
Table_Miura_9553-71_2D
100
AcDbSpline
210
0.0
220
0.0
230
1.0
 70
     8
 71
     3
 72
    17
 73
    13
 74
     0
 42
0.0000000001
 43
0.0000000001
 40
0.0
 40
0.0
 40
0.0
 40
0.0
 40
0.1433371388019667
 40
0.27412170485795
 40
0.5698915548390707
 40
0.891163767339524
 40
1.191151497005544
 40
1.428512647803955
 40
1.628463248150809
 40
1.792814010234205
 40
1.870845827558681
 40
1.966221106772676
 40
1.966221106772676
 40
1.966221106772676
 40
1.966221106772676
 10
2083.47596766699
 20
1199.3741992463
 30
0.0
 10
2083.434789110325
 20
1199.39984644767
 30
0.0
 10
2083.357632030025
 20
1199.448849782125
 30
0.0
 10
2083.203488332371
 20
1199.560023972054
 30
0.0
 10
2083.01269600968
 20
1199.720817571817
 30
0.0
 10
2082.794711096092
 20
1199.935385853079
 30
0.0
 10
2082.607253960095
 20
1200.152077788518
 30
0.0
 10
2082.465294338555
 20
1200.353075729199
 30
0.0
 10
2082.371329586841
 20
1200.530979416598
 30
0.0
 10
2082.328093863189
 20
1200.672811823866
 30
0.0
 10
2082.315510740577
 20
1200.784996938583
 30
0.0
 10
2082.315052048758
 20
1200.842774117583
 30
0.0
 10
2082.315153039565
 20
1200.874590986517
 30
0.0
  0
SPLINE
  5
8A
330
1F
100
AcDbEntity
  8
Table_Miura_9553-71_2D
100
AcDbSpline
210
0.0
220
0.0
230
1.0
 70
    24
 71
     2
 72
     6
 73
     3
 74
     0
 42
0.0000000001
 43
0.0000000001
 40
0.0
 40
0.0
 40
0.0
 40
0.3964465280210447
 40
0.3964465280210447
 40
0.3964465280210447
 10
2082.315153039565
 20
1200.874590986517
 30
0.0
 10
2082.315139656467
 20
1201.072814250439
 30
0.0
 10
2082.315126273366
 20
1201.271037514361
 30
0.0
  0
SPLINE
  5
8B
330
1F
100
AcDbEntity
  8
Table_Miura_9553-71_2D
100
AcDbSpline
210
0.0
220
0.0
230
1.0
 70
     8
 71
     3
 72
    12
 73
     8
 74
     0
 42
0.0000000001
 43
0.0000000001
 40
0.0
 40
0.0
 40
0.0
 40
0.0
 40
0.0709674213457879
 40
0.1335862693815868
 40
0.2813937667583465
 40
0.4525062216949928
 40
0.6273569207154127
 40
0.6273569207154127
 40
0.6273569207154127
 40
0.6273569207154127
 10
2082.315126273366
 20
1201.271037514361
 30
0.0
 10
2082.315016941513
 20
1201.294656256339
 30
0.0
 10
2082.316000198299
 20
1201.339512228755
 30
0.0
 10
2082.347909394026
 20
1201.429291832427
 30
0.0
 10
2082.435863966843
 20
1201.524744595082
 30
0.0
 10
2082.582727212751
 20
1201.603451707567
 30
0.0
 10
2082.698118715339
 20
1201.622385552304
 30
0.0
 10
2082.756291810922
 20
1201.6238645853
 30
0.0
  0
SPLINE
  5
8C
330
1F
100
AcDbEntity
  8
Table_Miura_9553-71_2D
100
AcDbSpline
210
0.0
220
0.0
230
1.0
 70
    12
 71
     3
 72
    15
 73
    11
 74
     0
 42
0.0000000001
 43
0.0000000001
 40
-2.500401592028198
 40
-2.500401592028198
 40
-2.500401592028198
 40
-2.500401592028198
 40
-2.092447594524907
 40
-1.587472916212024
 40
-0.9787609925742227
 40
-0.6090244151814629
 40
0.0
 40
0.0
 40
0.0
 40
0.3719149623461165
 40
0.3719149623461165
 40
0.3719149623461165
 40
0.3719149623461165
 10
2082.314818669516
 20
1572.673536506239
 30
0.0
 41
1.0
 10
2082.295516276527
 20
1572.538921274948
 30
0.0
 41
1.0
 10
2082.261764696099
 20
1572.236407569072
 30
0.0
 41
1.0
 10
2082.225713951553
 20
1571.730412484012
 30
0.0
 41
1.0
 10
2082.202622688366
 20
1571.236461431254
 30
0.0
 41
1.0
 10
2082.182550536527
 20
1570.707685163573
 30
0.0
 41
1.0
 10
2082.171406263321
 20
1570.377077286878
 30
0.0
 41
1.0
 10
2082.164369820122
 20
1570.174191701749
 30
0.0
 41
1.0
 10
2082.160072837792
 20
1570.050294478418
 30
0.0
 41
0.9999990251576335
 10
2082.156011602396
 20
1569.920450917215
 30
0.0
 41
0.9999990251576335
 10
2082.15061045132
 20
1569.796596916175
 30
0.0
 41
1.0
  0
SPLINE
  5
8D
330
1F
100
AcDbEntity
  8
Table_Miura_9553-71_2D
100
AcDbSpline
210
0.0
220
0.0
230
1.0
 70
    12
 71
     2
 72
     6
 73
     3
 74
     0
 42
0.0000000001
 43
0.0000000001
 40
-0.8893486808566594
 40
-0.8893486808566594
 40
-0.8893486808566594
 40
0.0
 40
0.0
 40
0.0
 10
2082.15061045132
 20
1569.796596916175
 30
0.0
 41
1.0
 10
2082.126339146909
 20
1569.240030710221
 30
0.0
 41
0.999995344343841
 10
2082.106402858091
 20
1568.795802119424
 30
0.0
 41
1.0
  0
SPLINE
  5
8E
330
1F
100
AcDbEntity
  8
Table_Miura_9553-71_2D
100
AcDbSpline
210
0.0
220
0.0
230
1.0
 70
     8
 71
     3
 72
    16
 73
    12
 74
     0
 42
0.0000000001
 43
0.0000000001
 40
-44.08091113805039
 40
-44.08091113805039
 40
-44.08091113805039
 40
-44.08091113805039
 40
-41.32262018863005
 40
-38.57568005800472
 40
-32.83955618066763
 40
-27.18774927002762
 40
-21.55559266881473
 40
-10.57964571019579
 40
-5.268782545111494
 40
-2.760660175474776
 40
0.0
 40
0.0
 40
0.0
 40
0.0
 10
2082.106402858091
 20
1568.795802119424
 30
0.0
 10
2082.0651825988
 20
1567.877315340609
 30
0.0
 10
2081.95589691135
 20
1566.045213796101
 30
0.0
 10
2081.603801509057
 20
1562.314162335739
 30
0.0
 10
2080.94644335769
 20
1557.646492015521
 30
0.0
 10
2079.813506221393
 20
1552.08448998644
 30
0.0
 10
2077.883407304719
 20
1544.916577409492
 30
0.0
 10
2075.327129379348
 20
1538.05582445704
 30
0.0
 10
2072.560119060819
 20
1532.430443929324
 30
0.0
 10
2070.839854405323
 20
1529.351502084425
 30
0.0
 10
2069.906798627529
 20
1527.829560849036
 30
0.0
 10
2069.423012443744
 20
1527.046941945725
 30
0.0
  0
SPLINE
  5
8F
330
1F
100
AcDbEntity
  8
Table_Miura_9553-71_2D
100
AcDbSpline
210
0.0
220
0.0
230
1.0
 70
     8
 71
     3
 72
    18
 73
    14
 74
     0
 42
0.0000000001
 43
0.0000000001
 40
-23.989786789493
 40
-23.989786789493
 40
-23.989786789493
 40
-23.989786789493
 40
-22.58263901442267
 40
-21.34373030388689
 40
-18.62944873608983
 40
-13.20000755298573
 40
-11.39409917538949
 40
-8.514888277655797
 40
-6.682465050476555
 40
-5.425659454196718
 40
-3.282334438373457
 40
-1.290606615411303
 40
0.0
 40
0.0
 40
0.0
 40
0.0
 10
2069.423012443744
 20
1527.046941945725
 30
0.0
 10
2069.176383639739
 20
1526.647971552222
 30
0.0
 10
2068.711150703281
 20
1525.898599230752
 30
0.0
 10
2067.74477202895
 20
1524.395642028954
 30
0.0
 10
2065.999379960747
 20
1521.800091019228
 30
0.0
 10
2064.038839155352
 20
1519.123595317426
 30
0.0
 10
2061.95145637621
 20
1516.475796573661
 30
0.0
 10
2060.56537515848
 20
1514.802609869853
 30
0.0
 10
2059.270788825957
 20
1513.291979147816
 30
0.0
 10
2058.125698258205
 20
1511.976286748764
 30
0.0
 10
2056.944925044878
 20
1510.621320505309
 30
0.0
 10
2055.762295808663
 20
1509.252987054032
 30
0.0
 10
2055.032164397274
 20
1508.408394533435
 30
0.0
 10
2054.750528395102
 20
1508.083189289898
 30
0.0
  0
SPLINE
  5
90
330
1F
100
AcDbEntity
  8
Table_Miura_9553-71_2D
100
AcDbSpline
210
0.0
220
0.0
230
1.0
 70
    24
 71
     2
 72
     6
 73
     3
 74
     0
 42
0.0000000001
 43
0.0000000001
 40
-405.407916564433
 40
-405.407916564433
 40
-405.407916564433
 40
0.0
 40
0.0
 40
0.0
 10
2054.750528395103
 20
1508.083189289898
 30
0.0
 10
1922.049638086041
 20
1354.85339971078
 30
0.0
 10
1789.348747776979
 20
1201.623610131662
 30
0.0
  0
POLYLINE
  5
91
330
1F
100
AcDbEntity
  8
Table_Miura_9553-71_2D
100
AcDb2dPolyline
 66
     1
 10
0.0
 20
0.0
 30
0.0
  0
VERTEX
  5
92
330
91
100
AcDbEntity
  8
Table_Miura_9553-71_2D
100
AcDbVertex
100
AcDb2dVertex
 10
1789.348747776979
 20
1201.623610131662
 30
0.0
  0
VERTEX
  5
93
330
91
100
AcDbEntity
  8
Table_Miura_9553-71_2D
100
AcDbVertex
100
AcDb2dVertex
 10
1834.017181889042
 20
1201.623933864351
 30
0.0
  0
SEQEND
  5
94
330
91
100
AcDbEntity
  8
Table_Miura_9553-71_2D
  0
SPLINE
  5
95
330
1F
100
AcDbEntity
  8
Table_Miura_9553-71_2D
100
AcDbSpline
210
0.0
220
0.0
230
1.0
 70
    24
 71
     2
 72
     6
 73
     3
 74
     0
 42
0.0000000001
 43
0.0000000001
 40
-379.0828237665146
 40
-379.0828237665146
 40
-379.0828237665146
 40
0.0
 40
0.0
 40
0.0
 10
1834.017181889042
 20
1201.623933864351
 30
0.0
 10
1958.101162885242
 20
1344.903773614517
 30
0.0
 10
2082.185143881442
 20
1488.183613364684
 30
0.0
  0
SPLINE
  5
96
330
1F
100
AcDbEntity
  8
Table_Miura_9553-71_2D
100
AcDbSpline
210
0.0
220
0.0
230
1.0
 70
     8
 71
     3
 72
    13
 73
     9
 74
     0
 42
0.0000000001
 43
0.0000000001
 40
0.0
 40
0.0
 40
0.0
 40
0.0
 40
0.0787536068012881
 40
0.1449423458634473
 40
0.266120321626831
 40
0.3853723078620238
 40
0.4472243187928732
 40
0.5284135023430946
 40
0.5284135023430946
 40
0.5284135023430946
 40
0.5284135023430946
 10
1833.536157393099
 20
1201.624210261639
 30
0.0
 10
1833.562346042439
 20
1201.623647002501
 30
0.0
 10
1833.61086587715
 20
1201.619153982204
 30
0.0
 10
1833.69549676143
 20
1201.591597564634
 30
0.0
 10
1833.772695644199
 20
1201.514642244954
 30
0.0
 10
1833.777572403524
 20
1201.407173021661
 30
0.0
 10
1833.738291307292
 20
1201.32813664934
 30
0.0
 10
1833.707746489193
 20
1201.291315636337
 30
0.0
 10
1833.689812508243
 20
1201.271023965196
 30
0.0
  0
SPLINE
  5
97
330
1F
100
AcDbEntity
  8
Table_Miura_9553-71_2D
100
AcDbSpline
210
0.0
220
0.0
230
1.0
 70
    24
 71
     2
 72
     6
 73
     3
 74
     0
 42
0.0000000001
 43
0.0000000001
 40
0.0
 40
0.0
 40
0.0
 40
0.5244136134750971
 40
0.5244136134750971
 40
0.5244136134750971
 10
1833.689812508243
 20
1201.271023965196
 30
0.0
 10
1833.518058047081
 20
1201.072699090242
 30
0.0
 10
1833.346303585919
 20
1200.874374215288
 30
0.0
  0
SPLINE
  5
98
330
1F
100
AcDbEntity
  8
Table_Miura_9553-71_2D
100
AcDbSpline
210
0.0
220
0.0
230
1.0
 70
     8
 71
     3
 72
    12
 73
     8
 74
     0
 42
0.0000000001
 43
0.0000000001
 40
0.0
 40
0.0
 40
0.0
 40
0.0
 40
0.2152508561583033
 40
0.4345163837059823
 40
1.01494970701215
 40
1.738429140534348
 40
2.240363334908872
 40
2.240363334908872
 40
2.240363334908872
 40
2.240363334908872
 10
1833.346303585919
 20
1200.874374215288
 30
0.0
 10
1833.299264445866
 20
1200.819825480883
 30
0.0
 10
1833.20342612009
 20
1200.711169468006
 30
0.0
 10
1832.967069832569
 20
1200.468985483378
 30
0.0
 10
1832.595064304675
 20
1200.123235237461
 30
0.0
 10
1832.141262696538
 20
1199.727729976812
 30
0.0
 10
1831.823050725904
 20
1199.471328442451
 30
0.0
 10
1831.686410276023
 20
1199.374567039144
 30
0.0
  0
SPLINE
  5
99
330
1F
100
AcDbEntity
  8
Table_Miura_9553-71_2D
100
AcDbSpline
210
0.0
220
0.0
230
1.0
 70
     8
 71
     3
 72
    12
 73
     8
 74
     0
 42
0.0000000001
 43
0.0000000001
 40
0.0
 40
0.0
 40
0.0
 40
0.0
 40
2.849423647238892
 40
5.573258475154478
 40
11.17057419198277
 40
16.6544972940824
 40
22.23406149512204
 40
22.23406149512204
 40
22.23406149512204
 40
22.23406149512204
 10
1831.686410276023
 20
1199.374567039144
 30
0.0
 10
1830.914179508244
 20
1198.821479283193
 30
0.0
 10
1829.361717540232
 20
1197.79861341385
 30
0.0
 10
1826.105283595219
 20
1195.987822814118
 30
0.0
 10
1821.842957859405
 20
1194.217495453979
 30
0.0
 10
1816.434308790077
 20
1192.888664136913
 30
0.0
 10
1812.750067825067
 20
1192.561450275241
 30
0.0
 10
1810.890348243151
 20
1192.539728204578
 30
0.0
  0
SPLINE
  5
9A
330
1F
100
AcDbEntity
  8
Table_Miura_9553-71_2D
100
AcDbSpline
210
0.0
220
0.0
230
1.0
 70
     8
 71
     5
 72
    12
 73
     6
 74
     0
 42
0.0000000001
 43
0.0000000001
 40
-1.0
 40
-1.0
 40
-1.0
 40
-1.0
 40
-1.0
 40
-1.0
 40
0.0
 40
0.0
 40
0.0
 40
0.0
 40
0.0
 40
0.0
 10
1810.890348243151
 20
1192.539728204578
 30
0.0
 10
1810.80757801905
 20
1192.538761424062
 30
0.0
 10
1810.724805032021
 20
1192.538031189695
 30
0.0
 10
1810.642027501279
 20
1192.537590822231
 30
0.0
 10
1810.559251645326
 20
1192.537346181045
 30
0.0
 10
1810.476475775418
 20
1192.537341364264
 30
0.0
  0
SPLINE
  5
9B
330
1F
100
AcDbEntity
  8
Table_Miura_9553-71_2D
100
AcDbSpline
210
0.0
220
0.0
230
1.0
 70
     8
 71
     3
 72
    12
 73
     8
 74
     0
 42
0.0000000001
 43
0.0000000001
 40
0.0
 40
0.0
 40
0.0
 40
0.0
 40
2.782398956976483
 40
5.60255636646087
 40
11.31396921066574
 40
16.96595331393149
 40
22.64829073387322
 40
22.64829073387322
 40
22.64829073387322
 40
22.64829073387322
 10
1810.476475775418
 20
1192.537341364264
 30
0.0
 10
1809.549003608963
 20
1192.537287394068
 30
0.0
 10
1807.681521699817
 20
1192.609929180218
 30
0.0
 10
1803.932630231791
 20
1193.045646460289
 30
0.0
 10
1799.318455530199
 20
1194.141895626008
 30
0.0
 10
1794.047234833746
 20
1196.308316343617
 30
0.0
 10
1790.806449208403
 20
1198.272225565118
 30
0.0
 10
1789.266180848714
 20
1199.374625143123
 30
0.0
  0
SPLINE
  5
9C
330
1F
100
AcDbEntity
  8
Table_Miura_9553-71_2D
100
AcDbSpline
210
0.0
220
0.0
230
1.0
 70
     8
 71
     3
 72
    16
 73
    12
 74
     0
 42
0.0000000001
 43
0.0000000001
 40
0.0
 40
0.0
 40
0.0
 40
0.0
 40
0.1449268675943032
 40
0.2673386247060248
 40
0.5163843678365243
 40
0.7646474073394522
 40
0.9969847930951104
 40
1.194773719318494
 40
1.376962800151374
 40
1.556234553971886
 40
1.789638013214851
 40
1.789638013214851
 40
1.789638013214851
 40
1.789638013214851
 10
1789.266180848714
 20
1199.374625143123
 30
0.0
 10
1789.22680608819
 20
1199.402716853392
 30
0.0
 10
1789.154695364185
 20
1199.455155394935
 30
0.0
 10
1789.024123817694
 20
1199.5675767871
 30
0.0
 10
1788.885733879057
 20
1199.721930147689
 30
0.0
 10
1788.75587363151
 20
1199.928690182708
 30
0.0
 10
1788.673734197873
 20
1200.140738570438
 30
0.0
 10
1788.6467495815
 20
1200.344823385608
 30
0.0
 10
1788.676118389475
 20
1200.531143882239
 30
0.0
 10
1788.764652938986
 20
1200.710707128947
 30
0.0
 10
1788.854418704076
 20
1200.815839594554
 30
0.0
 10
1788.905446225473
 20
1200.874546441821
 30
0.0
  0
SPLINE
  5
9D
330
1F
100
AcDbEntity
  8
Table_Miura_9553-71_2D
100
AcDbSpline
210
0.0
220
0.0
230
1.0
 70
    24
 71
     2
 72
     6
 73
     3
 74
     0
 42
0.0000000001
 43
0.0000000001
 40
0.0
 40
0.0
 40
0.0
 40
0.5244495011186677
 40
0.5244495011186677
 40
0.5244495011186677
 10
1788.905446225473
 20
1200.874546441821
 30
0.0
 10
1789.077194591138
 20
1201.07286512214
 30
0.0
 10
1789.248942956803
 20
1201.271183802459
 30
0.0
  0
SPLINE
  5
9E
330
1F
100
AcDbEntity
  8
Table_Miura_9553-71_2D
100
AcDbSpline
210
0.0
220
0.0
230
1.0
 70
     8
 71
     3
 72
    12
 73
     8
 74
     0
 42
0.0000000001
 43
0.0000000001
 40
0.0
 40
0.0
 40
0.0
 40
0.0
 40
0.089002379783791
 40
0.1797960093880787
 40
0.4111935266141908
 40
0.6556287843907624
 40
0.8529822444616081
 40
0.8529822444616081
 40
0.8529822444616081
 40
0.8529822444616081
 10
1789.248942956803
 20
1201.271183802459
 30
0.0
 10
1789.268254918637
 20
1201.293911607313
 30
0.0
 10
1789.309048595892
 20
1201.338039667301
 30
0.0
 10
1789.417725237091
 20
1201.422292184803
 30
0.0
 10
1789.584246419126
 20
1201.512549363414
 30
0.0
 10
1789.793753400649
 20
1201.594349712418
 30
0.0
 10
1789.939272762555
 20
1201.622198560901
 30
0.0
 10
1790.005163011527
 20
1201.623982292172
 30
0.0
  0
SPLINE
  5
9F
330
1F
100
AcDbEntity
  8
Table_Miura_9553-71_2D
100
AcDbSpline
210
0.0
220
0.0
230
1.0
 70
    12
 71
     3
 72
    18
 73
    14
 74
     0
 42
0.0000000001
 43
0.0000000001
 40
-17.08061118246446
 40
-17.08061118246446
 40
-17.08061118246446
 40
-17.08061118246446
 40
-15.57895392647034
 40
-15.57895392647034
 40
-15.57895392647034
 40
-11.24807156559795
 40
-11.24807156559795
 40
-11.24807156559795
 40
-8.873594413233327
 40
-6.279800604855796
 40
-3.187801552011506
 40
-1.394045745757028
 40
0.0
 40
0.0
 40
0.0
 40
0.0
 10
2086.820444497087
 20
1569.328936085135
 30
0.0
 41
1.0
 10
2086.266595358466
 20
1569.310248647765
 30
0.0
 41
0.8207490813200227
 10
2085.874408187765
 20
1568.918563239851
 30
0.0
 41
0.8207490813200227
 10
2085.854782716917
 20
1568.364509769
 30
0.0
 41
1.0
 10
2085.803367295994
 20
1566.92147148097
 30
0.0
 41
0.9999156577956787
 10
2085.728992563177
 20
1565.479351341905
 30
0.0
 41
0.9999156577956787
 10
2085.631677337255
 20
1564.038514246579
 30
0.0
 41
1.0
 10
2085.578435394484
 20
1563.248166111955
 30
0.0
 41
1.0
 10
2085.454360589359
 20
1561.596682342967
 30
0.0
 41
1.0
 10
2085.214249295679
 20
1558.920618358695
 30
0.0
 41
1.0
 10
2084.963209348502
 20
1556.440078359189
 30
0.0
 41
1.0
 10
2084.739227836332
 20
1554.358825504654
 30
0.0
 41
1.0
 10
2084.621005835225
 20
1553.300684630323
 30
0.0
 41
1.0
 10
2084.567238034309
 20
1552.839121727086
 30
0.0
 41
1.0
  0
SPLINE
  5
A0
330
1F
100
AcDbEntity
  8
Table_Miura_9553-71_2D
100
AcDbSpline
210
0.0
220
0.0
230
1.0
 70
     8
 71
     3
 72
    16
 73
    12
 74
     0
 42
0.0000000001
 43
0.0000000001
 40
-33.3642801434906
 40
-33.3642801434906
 40
-33.3642801434906
 40
-33.3642801434906
 40
-24.17426881783292
 40
-19.70973193739507
 40
-17.41415730793448
 40
-12.69286067967022
 40
-10.39643749466709
 40
-6.695123544693318
 40
-3.023047667395002
 40
-1.441026840298903
 40
0.0
 40
0.0
 40
0.0
 40
0.0
 10
2084.567238034309
 20
1552.839121727086
 30
0.0
 10
2084.212778826446
 20
1549.796311378256
 30
0.0
 10
2083.603655702207
 20
1545.28526648213
 30
0.0
 10
2082.799536959268
 20
1540.029714027254
 30
0.0
 10
2082.202027414064
 20
1536.249484953666
 30
0.0
 10
2081.708240246913
 20
1533.184593880174
 30
0.0
 10
2081.152812664973
 20
1529.654986804299
 30
0.0
 10
2080.674909186417
 20
1526.467315152255
 30
0.0
 10
2080.290374792847
 20
1523.506742359012
 30
0.0
 10
2080.063363343738
 20
1521.286451929138
 30
0.0
 10
2079.982723309222
 20
1520.281955405835
 30
0.0
 10
2079.9503855973
 20
1519.802478824264
 30
0.0
  0
SPLINE
  5
A1
330
1F
100
AcDbEntity
  8
Table_Miura_9553-71_2D
100
AcDbSpline
210
0.0
220
0.0
230
1.0
 70
     8
 71
     3
 72
    12
 73
     8
 74
     0
 42
0.0000000001
 43
0.0000000001
 40
-2.866008512548971
 40
-2.866008512548971
 40
-2.866008512548971
 40
-2.866008512548971
 40
-2.180350089160199
 40
-1.316467333291305
 40
-0.6436630852735567
 40
-0.3236325452860642
 40
0.0
 40
0.0
 40
0.0
 40
0.0
 10
2079.9503855973
 20
1519.802478824264
 30
0.0
 10
2079.934846952825
 20
1519.574231510008
 30
0.0
 10
2079.907247575511
 20
1519.058448927801
 30
0.0
 10
2079.875501666503
 20
1518.318329830783
 30
0.0
 10
2079.858091679002
 20
1517.699650905736
 30
0.0
 10
2079.852249791659
 20
1517.260856409906
 30
0.0
 10
2079.851024915631
 20
1517.046309000261
 30
0.0
 10
2079.851022722729
 20
1516.938418646728
 30
0.0
  0
SPLINE
  5
A2
330
1F
100
AcDbEntity
  8
Table_Miura_9553-71_2D
100
AcDbSpline
210
0.0
220
0.0
230
1.0
 70
     8
 71
     3
 72
    13
 73
     9
 74
     0
 42
0.0000000001
 43
0.0000000001
 40
-8.067492795701003
 40
-8.067492795701003
 40
-8.067492795701003
 40
-8.067492795701003
 40
-6.929436622567084
 40
-5.933962300934527
 40
-4.014321351435199
 40
-2.037649979843422
 40
-1.015652899145925
 40
0.0
 40
0.0
 40
0.0
 40
0.0
 10
2079.851022722729
 20
1516.938418646728
 30
0.0
 10
2079.850369428687
 20
1516.559075665663
 30
0.0
 10
2079.864057009869
 20
1515.847698054072
 30
0.0
 10
2079.982682658391
 20
1514.500917384303
 30
0.0
 10
2080.327458052363
 20
1512.901024470387
 30
0.0
 10
2080.949876930711
 20
1511.377516751966
 30
0.0
 10
2081.604972355776
 20
1510.209897524898
 30
0.0
 10
2081.985008706775
 20
1509.645967931049
 30
0.0
 10
2082.185145050204
 20
1509.373024628587
 30
0.0
  0
SPLINE
  5
A3
330
1F
100
AcDbEntity
  8
Table_Miura_9553-71_2D
100
AcDbSpline
210
0.0
220
0.0
230
1.0
 70
    12
 71
     3
 72
    12
 73
     8
 74
     0
 42
0.0000000001
 43
0.0000000001
 40
-0.5262507170806857
 40
-0.5262507170806857
 40
-0.5262507170806857
 40
-0.5262507170806857
 40
-0.5145170103963779
 40
-0.5145170103963779
 40
-0.2542829628112115
 40
-0.2542829628112115
 40
-0.0317448945959232
 40
-0.0317448945959232
 40
-0.0317448945959232
 40
-0.0317448945959232
 10
2086.187485848817
 20
1569.074842415153
 30
0.0
 41
1.0
 10
2086.185009170847
 20
1569.079279153118
 30
0.0
 41
1.0
 10
2086.182517833427
 20
1569.083648089659
 30
0.0
 41
1.0
 10
2086.124458976089
 20
1569.183296080753
 30
0.0
 41
1.0
 10
2086.065344907268
 20
1569.243424540949
 30
0.0
 41
1.0
 10
2085.961788666355
 20
1569.311243235474
 30
0.0
 41
1.0
 10
2085.916187446172
 20
1569.325719052101
 30
0.0
 41
1.0
 10
2085.872666512869
 20
1569.32884770855
 30
0.0
 41
1.0
  0
ARC
  5
A4
330
1F
100
AcDbEntity
  8
Table_Miura_9553-71_2D
100
AcDbCircle
 10
2122.301024749388
 20
1569.928846444704
 30
0.0
 40
10.01354662635185
100
AcDbArc
 50
356.5686501530192
 51
0.0
  0
SPLINE
  5
A5
330
1F
100
AcDbEntity
  8
Table_Miura_9553-71_2D
100
AcDbSpline
210
0.0
220
0.0
230
1.0
 70
    12
 71
     2
 72
     6
 73
     3
 74
     0
 42
0.0000000001
 43
0.0000000001
 40
0.0
 40
0.0
 40
0.0
 40
3.332521385645804
 40
3.332521385645804
 40
3.332521385645804
 10
2132.296619375116
 20
1569.329510048157
 30
0.0
 41
1.0
 10
2130.630358682294
 20
1569.329510102839
 30
0.0
 41
0.9999999999999998
 10
2128.96409798947
 20
1569.329510082554
 30
0.0
 41
1.0
  0
SPLINE
  5
A6
330
1F
100
AcDbEntity
  8
Table_Miura_9553-71_2D
100
AcDbSpline
210
0.0
220
0.0
230
1.0
 70
    24
 71
     2
 72
     6
 73
     3
 74
     0
 42
0.0000000001
 43
0.0000000001
 40
0.0
 40
0.0
 40
0.0
 40
8.348680839593043
 40
8.348680839593043
 40
8.348680839593043
 10
2128.96409798947
 20
1569.329510082554
 30
0.0
 10
2124.789757569674
 20
1569.32951006812
 30
0.0
 10
2120.615417149877
 20
1569.329510053686
 30
0.0
  0
SPLINE
  5
A7
330
1F
100
AcDbEntity
  8
Table_Miura_9553-71_2D
100
AcDbSpline
210
0.0
220
0.0
230
1.0
 70
    24
 71
     2
 72
     6
 73
     3
 74
     0
 42
0.0000000001
 43
0.0000000001
 40
0.0
 40
0.0
 40
0.0
 40
0.0160983755549751
 40
0.0160983755549751
 40
0.0160983755549751
 10
2120.615417149877
 20
1569.329510053686
 30
0.0
 10
2120.6073679621
 20
1569.329510053638
 30
0.0
 10
2120.599318774322
 20
1569.32951005359
 30
0.0
  0
SPLINE
  5
A8
330
1F
100
AcDbEntity
  8
Table_Miura_9553-71_2D
100
AcDbSpline
210
0.0
220
0.0
230
1.0
 70
    12
 71
     3
 72
    10
 73
     6
 74
     0
 42
0.0000000001
 43
0.0000000001
 40
0.0049548717152337
 40
0.0049548717152337
 40
0.0049548717152337
 40
0.0049548717152337
 40
0.7080051891948135
 40
0.7080051891948135
 40
1.41140173157308
 40
1.41140173157308
 40
1.41140173157308
 40
1.41140173157308
 10
2120.599318774322
 20
1569.32951005359
 30
0.0
 41
1.0
 10
2120.398602997562
 20
1569.329504734527
 30
0.0
 41
1.0
 10
2120.202933033337
 20
1569.413222766829
 30
0.0
 41
1.0
 10
2119.891493745665
 20
1569.719750145781
 30
0.0
 41
1.0
 10
2119.78706881479
 20
1569.931746266571
 30
0.0
 41
1.0
 10
2119.753375115036
 20
1570.16561972699
 30
0.0
 41
1.0
  0
SPLINE
  5
A9
330
1F
100
AcDbEntity
  8
Table_Miura_9553-71_2D
100
AcDbSpline
210
0.0
220
0.0
230
1.0
 70
     8
 71
     3
 72
    18
 73
    14
 74
     0
 42
0.0000000001
 43
0.0000000001
 40
0.0
 40
0.0
 40
0.0
 40
0.0
 40
1.377704624405373
 40
2.696713512584107
 40
3.984914730732072
 40
5.250484060508209
 40
5.917725107688561
 40
6.281926508383835
 40
6.60481718544714
 40
6.899780132333365
 40
7.290264732586266
 40
8.184836209513848
 40
14.64921461756716
 40
14.64921461756716
 40
14.64921461756716
 40
14.64921461756716
 10
2119.753375115036
 20
1570.16561972699
 30
0.0
 10
2119.687979892491
 20
1570.620118673994
 30
0.0
 10
2119.453974209555
 20
1571.495173985337
 30
0.0
 10
2118.790724753754
 20
1572.659642203365
 30
0.0
 10
2117.85454775097
 20
1573.568959700184
 30
0.0
 10
2116.886663091704
 20
1574.060927741895
 30
0.0
 10
2116.142719490614
 20
1574.249667293772
 30
0.0
 10
2115.695017965393
 20
1574.311202975622
 30
0.0
 10
2115.36811806857
 20
1574.330566953092
 30
0.0
 10
2115.031926029488
 20
1574.329797235711
 30
0.0
 10
2114.505306623721
 20
1574.329397500024
 30
0.0
 10
2111.922257560519
 20
1574.329664042698
 30
0.0
 10
2109.469399647977
 20
1574.329418622696
 30
0.0
 10
2107.314695022626
 20
1574.329510087788
 30
0.0
  0
SPLINE
  5
AA
330
1F
100
AcDbEntity
  8
Table_Miura_9553-71_2D
100
AcDbSpline
210
0.0
220
0.0
230
1.0
 70
     8
 71
     3
 72
    18
 73
    14
 74
     0
 42
0.0000000001
 43
0.0000000001
 40
-14.64921461756716
 40
-14.64921461756716
 40
-14.64921461756716
 40
-14.64921461756716
 40
-8.184836209513706
 40
-7.290264732586143
 40
-6.899780132333247
 40
-6.604817185447028
 40
-6.281926508383727
 40
-5.91772510768846
 40
-5.25048406050812
 40
-3.984914730732004
 40
-2.69671351258406
 40
-1.37770462440535
 40
0.0
 40
0.0
 40
0.0
 40
0.0
 10
2107.314695022626
 20
1574.329510087788
 30
0.0
 10
2105.159990397276
 20
1574.329418622696
 30
0.0
 10
2102.707132484734
 20
1574.329664042698
 30
0.0
 10
2100.124083421531
 20
1574.329397500024
 30
0.0
 10
2099.597464015765
 20
1574.329797235711
 30
0.0
 10
2099.261271976683
 20
1574.330566953092
 30
0.0
 10
2098.93437207986
 20
1574.311202975622
 30
0.0
 10
2098.486670554639
 20
1574.249667293772
 30
0.0
 10
2097.742726953549
 20
1574.060927741895
 30
0.0
 10
2096.774842294284
 20
1573.568959700184
 30
0.0
 10
2095.8386652915
 20
1572.659642203365
 30
0.0
 10
2095.175415835698
 20
1571.495173985337
 30
0.0
 10
2094.941410152762
 20
1570.620118673994
 30
0.0
 10
2094.876014930217
 20
1570.16561972699
 30
0.0
  0
SPLINE
  5
AB
330
1F
100
AcDbEntity
  8
Table_Miura_9553-71_2D
100
AcDbSpline
210
0.0
220
0.0
230
1.0
 70
    12
 71
     3
 72
    10
 73
     6
 74
     0
 42
0.0000000001
 43
0.0000000001
 40
-1.41140173157308
 40
-1.41140173157308
 40
-1.41140173157308
 40
-1.41140173157308
 40
-0.7080051891948135
 40
-0.7080051891948135
 40
-0.0049548717152337
 40
-0.0049548717152337
 40
-0.0049548717152337
 40
-0.0049548717152337
 10
2094.876014930217
 20
1570.16561972699
 30
0.0
 41
1.0
 10
2094.842321230463
 20
1569.931746266571
 30
0.0
 41
1.0
 10
2094.737896299588
 20
1569.719750145781
 30
0.0
 41
1.0
 10
2094.426457011916
 20
1569.413222766829
 30
0.0
 41
1.0
 10
2094.230787047691
 20
1569.329504734527
 30
0.0
 41
1.0
 10
2094.03007127093
 20
1569.32951005359
 30
0.0
 41
1.0
  0
SPLINE
  5
AC
330
1F
100
AcDbEntity
  8
Table_Miura_9553-71_2D
100
AcDbSpline
210
0.0
220
0.0
230
1.0
 70
    24
 71
     2
 72
     6
 73
     3
 74
     0
 42
0.0000000001
 43
0.0000000001
 40
-0.0160983755549751
 40
-0.0160983755549751
 40
-0.0160983755549751
 40
0.0
 40
0.0
 40
0.0
 10
2094.03007127093
 20
1569.32951005359
 30
0.0
 10
2094.022022083153
 20
1569.329510053638
 30
0.0
 10
2094.013972895375
 20
1569.329510053686
 30
0.0
  0
SPLINE
  5
AD
330
1F
100
AcDbEntity
  8
Table_Miura_9553-71_2D
100
AcDbSpline
210
0.0
220
0.0
230
1.0
 70
    24
 71
     2
 72
     6
 73
     3
 74
     0
 42
0.0000000001
 43
0.0000000001
 40
-8.348680839593043
 40
-8.348680839593043
 40
-8.348680839593043
 40
0.0
 40
0.0
 40
0.0
 10
2094.013972895375
 20
1569.329510053686
 30
0.0
 10
2089.839632475579
 20
1569.32951006812
 30
0.0
 10
2085.665292055783
 20
1569.329510082554
 30
0.0
  0
SPLINE
  5
AE
330
1F
100
AcDbEntity
  8
Table_Miura_9553-71_2D
100
AcDbSpline
210
0.0
220
0.0
230
1.0
 70
    12
 71
     2
 72
     6
 73
     3
 74
     0
 42
0.0000000001
 43
0.0000000001
 40
-3.332521385645804
 40
-3.332521385645804
 40
-3.332521385645804
 40
0.0
 40
0.0
 40
0.0
 10
2085.665292055783
 20
1569.329510082554
 30
0.0
 41
1.0
 10
2083.999031362959
 20
1569.329510102839
 30
0.0
 41
0.9999999999999998
 10
2082.332770670137
 20
1569.329510048157
 30
0.0
 41
1.0
  0
ARC
  5
AF
330
1F
100
AcDbEntity
  8
Table_Miura_9553-71_2D
100
AcDbCircle
 10
2092.328365295865
 20
1569.928846444704
 30
0.0
 40
10.01354662635185
100
AcDbArc
 50
180.0
 51
183.4313498469807
  0
SPLINE
  5
B0
330
1F
100
AcDbEntity
  8
Table_Miura_9553-71_2D
100
AcDbSpline
210
0.0
220
0.0
230
1.0
 70
     8
 71
     3
 72
    12
 73
     8
 74
     0
 42
0.0000000001
 43
0.0000000001
 40
0.0
 40
0.0
 40
0.0
 40
0.0
 40
0.1167120639292131
 40
0.2430944609352435
 40
0.5000268890606814
 40
0.7758895689378357
 40
1.056331722181715
 40
1.056331722181715
 40
1.056331722181715
 40
1.056331722181715
 10
1014.739944749756
 20
1569.32870538887
 30
0.0
 10
1014.778809454317
 20
1569.327137180774
 30
0.0
 10
1014.859534014191
 20
1569.317379786288
 30
0.0
 10
1015.020130596309
 20
1569.270871531318
 30
0.0
 10
1015.212979057026
 20
1569.159756541752
 30
0.0
 10
1015.397183206809
 20
1568.956901190599
 30
0.0
 10
1015.481137965458
 20
1568.78980530699
 30
0.0
 10
1015.511728049288
 20
1568.701453014823
 30
0.0
  0
SPLINE
  5
B1
330
1F
100
AcDbEntity
  8
Table_Miura_9553-71_2D
100
AcDbSpline
210
0.0
220
0.0
230
1.0
 70
    24
 71
     2
 72
     6
 73
     3
 74
     0
 42
0.0000000001
 43
0.0000000001
 40
0.0
 40
0.0
 40
0.0
 40
0.0003644189914382
 40
0.0003644189914382
 40
0.0003644189914382
 10
1002.676275282799
 20
1574.329368904192
 30
0.0
 10
1002.676093073304
 20
1574.329368904167
 30
0.0
 10
1002.675910863808
 20
1574.329368904142
 30
0.0
  0
POLYLINE
  5
B2
330
1F
100
AcDbEntity
  8
Table_Miura_9553-71_2D
100
AcDb2dPolyline
 66
     1
 10
0.0
 20
0.0
 30
0.0
  0
VERTEX
  5
B3
330
B2
100
AcDbEntity
  8
Table_Miura_9553-71_2D
100
AcDbVertex
100
AcDb2dVertex
 10
664.9906350164651
 20
1201.624449896267
 30
0.0
  0
VERTEX
  5
B4
330
B2
100
AcDbEntity
  8
Table_Miura_9553-71_2D
100
AcDbVertex
100
AcDb2dVertex
 10
707.6291743693741
 20
1201.62444980538
 30
0.0
  0
SEQEND
  5
B5
330
B2
100
AcDbEntity
  8
Table_Miura_9553-71_2D
  0
SPLINE
  5
B6
330
1F
100
AcDbEntity
  8
Table_Miura_9553-71_2D
100
AcDbSpline
210
0.0
220
0.0
230
1.0
 70
    12
 71
     2
 72
     6
 73
     3
 74
     0
 42
0.0000000001
 43
0.0000000001
 40
0.0
 40
0.0
 40
0.0
 40
1.517675704074519
 40
1.517675704074519
 40
1.517675704074519
 10
1016.407850034234
 20
1569.328848914697
 30
0.0
 41
1.0
 10
1015.459597838726
 20
1569.297707687059
 30
0.0
 41
0.7256366645658146
 10
1015.440136571447
 20
1568.349665984514
 30
0.0
 41
1.0
  0
SPLINE
  5
B7
330
1F
100
AcDbEntity
  8
Table_Miura_9553-71_2D
100
AcDbSpline
210
0.0
220
0.0
230
1.0
 70
    12
 71
     2
 72
     6
 73
     3
 74
     0
 42
0.0000000001
 43
0.0000000001
 40
0.0
 40
0.0
 40
0.0
 40
4.338894157400503
 40
4.338894157400503
 40
4.338894157400503
 10
1015.440136571447
 20
1568.349665984514
 30
0.0
 41
1.0
 10
1015.395556535325
 20
1566.177981441123
 30
0.0
 41
0.9999577101164851
 10
1015.310951330963
 20
1564.010123515792
 30
0.0
 41
1.0
  0
SPLINE
  5
B8
330
1F
100
AcDbEntity
  8
Table_Miura_9553-71_2D
100
AcDbSpline
210
0.0
220
0.0
230
1.0
 70
     8
 71
     3
 72
    13
 73
     9
 74
     0
 42
0.0000000001
 43
0.0000000001
 40
0.0
 40
0.0
 40
0.0
 40
0.0
 40
1.195776873000196
 40
2.341423735031693
 40
4.878196780698156
 40
8.059055609734553
 40
9.89647813407859
 40
11.23169972175378
 40
11.23169972175378
 40
11.23169972175378
 40
11.23169972175378
 10
1015.310951330963
 20
1564.010123515792
 30
0.0
 10
1015.295407258962
 20
1563.611834309658
 30
0.0
 10
1015.263479347071
 20
1562.832011804523
 30
0.0
 10
1015.189736952955
 20
1561.20761393325
 30
0.0
 10
1015.071114298032
 20
1558.922915272895
 30
0.0
 10
1014.923555325718
 20
1556.408880689506
 30
0.0
 10
1014.79311363148
 20
1554.295067825953
 30
0.0
 10
1014.725208349631
 20
1553.234638251614
 30
0.0
 10
1014.695307322182
 20
1552.7905695014
 30
0.0
  0
SPLINE
  5
B9
330
1F
100
AcDbEntity
  8
Table_Miura_9553-71_2D
100
AcDbSpline
210
0.0
220
0.0
230
1.0
 70
     8
 71
     3
 72
    46
 73
    42
 74
     0
 42
0.0000000001
 43
0.0000000001
 40
0.0
 40
0.0
 40
0.0
 40
0.0
 40
4.445528572919531
 40
9.136184748431084
 40
13.56629843505467
 40
20.52288534708523
 40
22.80023416032957
 40
26.47397545349463
 40
30.12593374789432
 40
33.12390876023884
 40
33.12390876023884
 40
33.12390876023884
 40
33.44213680694137
 40
33.79291129403629
 40
34.65617602833069
 40
35.95951821029372
 40
35.95951821029372
 40
35.95951821029372
 40
37.26413056451781
 40
38.4014712048069
 40
40.57038699906814
 40
42.7593198436251
 40
44.84110739718989
 40
45.77561526079327
 40
46.65453737284929
 40
47.46896338621528
 40
48.21895529454341
 40
48.90499283523491
 40
49.56381445895246
 40
50.22094840567009
 40
51.02557524063457
 40
51.02557524063457
 40
51.02557524063457
 40
56.82679662646954
 40
56.82679662646954
 40
56.82679662646954
 40
57.82809886771776
 40
58.78296253335561
 40
60.89975999567615
 40
62.90994723231162
 40
65.188593675824
 40
65.188593675824
 40
65.188593675824
 40
65.188593675824
 10
1014.695307322183
 20
1552.7905695014
 30
0.0
 10
1014.595754058758
 20
1551.312075381243
 30
0.0
 10
1014.376002693257
 20
1548.274582526947
 30
0.0
 10
1014.009103036828
 20
1543.767356119554
 30
0.0
 10
1013.538150785207
 20
1538.428948567217
 30
0.0
 10
1013.114010996361
 20
1533.894049349471
 30
0.0
 10
1012.724322917409
 20
1529.609169329996
 30
0.0
 10
1012.448289133755
 20
1526.42006343211
 30
0.0
 10
1012.190737507779
 20
1522.988375802575
 30
0.0
 10
1012.069026519273
 20
1520.771593596066
 30
0.0
 10
1012.030789821864
 20
1519.772987201498
 30
0.0
 10
1012.026731173837
 20
1519.666989765839
 30
0.0
 10
1012.018647533803
 20
1519.444132254347
 30
0.0
 10
1012.003733393405
 20
1518.933595214621
 30
0.0
 10
1011.982568121535
 20
1518.094727320087
 30
0.0
 10
1011.973965913967
 20
1517.372546755131
 30
0.0
 10
1011.974008451421
 20
1516.938092389961
 30
0.0
 10
1011.973620132355
 20
1516.503255768626
 30
0.0
 10
1011.984061942786
 20
1515.689078338146
 30
0.0
 10
1012.081670243687
 20
1514.15474175478
 30
0.0
 10
1012.3619348417
 20
1512.340871667142
 30
0.0
 10
1012.961978954719
 20
1510.275166101598
 30
0.0
 10
1013.666975746568
 20
1508.684759635792
 30
0.0
 10
1014.334116458206
 20
1507.569148366727
 30
0.0
 10
1014.850316566622
 20
1506.860363813045
 30
0.0
 10
1015.396612848004
 20
1506.254477667318
 30
0.0
 10
1015.965123568317
 20
1505.762532402538
 30
0.0
 10
1016.553787935422
 20
1505.383430738714
 30
0.0
 10
1017.165592997453
 20
1505.111648417316
 30
0.0
 10
1017.85028390353
 20
1504.928333203891
 30
0.0
 10
1018.334929519775
 20
1504.869553013236
 30
0.0
 10
1018.601355348693
 20
1504.840157244973
 30
0.0
 10
1020.524055834539
 20
1504.626160972183
 30
0.0
 10
1022.734307500216
 20
1503.728517396995
 30
0.0
 10
1023.6844784296
 20
1502.044441053432
 30
0.0
 10
1023.848133696923
 20
1501.753550870038
 30
0.0
 10
1024.167062325366
 20
1501.184809894758
 30
0.0
 10
1024.821720279689
 20
1499.995407044024
 30
0.0
 10
1025.623894411563
 20
1498.503404534595
 30
0.0
 10
1026.615919802074
 20
1496.612600842905
 30
0.0
 10
1027.298182301595
 20
1495.277337632056
 30
0.0
 10
1027.637859766606
 20
1494.597982701609
 30
0.0
  0
SPLINE
  5
BA
330
1F
100
AcDbEntity
  8
Table_Miura_9553-71_2D
100
AcDbSpline
210
0.0
220
0.0
230
1.0
 70
    24
 71
     2
 72
     6
 73
     3
 74
     0
 42
0.0000000001
 43
0.0000000001
 40
0.0
 40
0.0
 40
0.0
 40
327.5547231258826
 40
327.5547231258826
 40
327.5547231258826
 10
1027.637859766606
 20
1494.597982701609
 30
0.0
 10
1100.881322456018
 20
1348.111057231166
 30
0.0
 10
1174.12478514543
 20
1201.624131760723
 30
0.0
  0
LINE
  5
BB
330
1F
100
AcDbEntity
  8
Table_Miura_9553-71_2D
100
AcDbLine
 10
1174.12478514543
 20
1201.624131760723
 30
0.0
 11
1222.592709502941
 21
1201.624595367563
 31
0.0
  0
SPLINE
  5
BC
330
1F
100
AcDbEntity
  8
Table_Miura_9553-71_2D
100
AcDbSpline
210
0.0
220
0.0
230
1.0
 70
    24
 71
     2
 72
     6
 73
     3
 74
     0
 42
0.0000000001
 43
0.0000000001
 40
0.0
 40
0.0
 40
0.0
 40
338.0425444558308
 40
338.0425444558308
 40
338.0425444558308
 10
1222.592709502941
 20
1201.624595367563
 30
0.0
 10
1147.00409867174
 20
1352.801817124521
 30
0.0
 10
1071.415487840538
 20
1503.979038881478
 30
0.0
  0
SPLINE
  5
BD
330
1F
100
AcDbEntity
  8
Table_Miura_9553-71_2D
100
AcDbSpline
210
0.0
220
0.0
230
1.0
 70
     8
 71
     3
 72
    15
 73
    11
 74
     0
 42
0.0000000001
 43
0.0000000001
 40
0.0
 40
0.0
 40
0.0
 40
0.0
 40
2.804057442577903
 40
5.813535061115351
 40
7.520094063378131
 40
12.01795169840552
 40
16.91927281030366
 40
18.14949344777262
 40
19.34253087904432
 40
21.65307934478401
 40
21.65307934478401
 40
21.65307934478401
 40
21.65307934478401
 10
1071.415487840538
 20
1503.979038881478
 30
0.0
 10
1070.997485994217
 20
1504.815042574643
 30
0.0
 10
1070.096157575126
 20
1506.624122650308
 30
0.0
 10
1068.97067955547
 20
1508.863936348534
 30
0.0
 10
1067.603200001589
 20
1511.614037164961
 30
0.0
 10
1065.994234809525
 20
1514.948137601409
 30
0.0
 10
1064.514233932573
 20
1518.16760057176
 30
0.0
 10
1063.527930954948
 20
1520.40104711019
 30
0.0
 10
1062.895697473677
 20
1521.846820969661
 30
0.0
 10
1062.445916669583
 20
1522.924640058225
 30
0.0
 10
1062.146102446837
 20
1523.634063571484
 30
0.0
  0
SPLINE
  5
BE
330
1F
100
AcDbEntity
  8
Table_Miura_9553-71_2D
100
AcDbSpline
210
0.0
220
0.0
230
1.0
 70
    12
 71
     3
 72
    26
 73
    22
 74
     0
 42
0.0000000001
 43
0.0000000001
 40
-45.87114236150764
 40
-45.87114236150764
 40
-45.87114236150764
 40
-45.87114236150764
 40
-43.7482714319039
 40
-41.95073232195075
 40
-37.96290779321185
 40
-29.2091905711187
 40
-19.77032179938261
 40
-14.83888187793954
 40
-9.836376581035709
 40
-9.836376581035709
 40
-9.836376581035709
 40
-9.16749384238369
 40
-7.554830330056148
 40
-5.942166817728606
 40
-4.329503305401064
 40
-4.329503305401064
 40
-4.329503305401064
 40
0.0
 40
0.0
 40
0.0
 40
1.489429492300063
 40
1.489429492300063
 40
1.489429492300063
 40
1.489429492300063
 10
1062.146102446837
 20
1523.634063571484
 30
0.0
 41
1.0
 10
1061.870658058533
 20
1524.285822930559
 30
0.0
 41
1.0
 10
1061.338648445728
 20
1525.542517034643
 30
0.0
 41
1.0
 10
1060.378391055019
 20
1527.997545340882
 30
0.0
 41
1.0
 10
1058.778045804039
 20
1532.5737549378
 30
0.0
 41
1.0
 10
1056.789467821805
 20
1539.700443840553
 30
0.0
 41
1.0
 10
1055.248011103158
 20
1547.256987538029
 30
0.0
 41
1.0
 10
1054.252085098771
 20
1553.637960890675
 30
0.0
 41
1.0
 10
1053.841316848619
 20
1556.924158020115
 30
0.0
 41
1.0
 10
1053.658476007003
 20
1558.58157470789
 30
0.0
 41
1.0
 10
1053.634083246656
 20
1558.802690338855
 30
0.0
 41
1.0
 10
1053.552026032967
 20
1559.556987818803
 30
0.0
 41
1.0
 10
1053.419097480461
 20
1560.8443067098
 30
0.0
 41
1.0
 10
1053.267163972557
 20
1562.446059524765
 30
0.0
 41
1.0
 10
1053.177212177985
 20
1563.51422757126
 30
0.0
 41
1.0
 10
1053.135476535717
 20
1564.048650829468
 30
0.0
 41
1.0
 10
1053.02310852528
 20
1565.487518784812
 30
0.0
 41
0.9998874918685951
 10
1052.937193010519
 20
1566.928208233308
 30
0.0
 41
0.9998874918685951
 10
1052.877758990015
 20
1568.370232907123
 30
0.0
 41
1.0
 10
1052.855162073406
 20
1568.918493163234
 30
0.0
 41
0.8233637531700498
 10
1052.467103296444
 20
1569.306449751907
 30
0.0
 41
0.8233637531700498
 10
1051.919218396868
 20
1569.328521085873
 30
0.0
 41
1.0
  0
SPLINE
  5
BF
330
1F
100
AcDbEntity
  8
Table_Miura_9553-71_2D
100
AcDbSpline
210
0.0
220
0.0
230
1.0
 70
     8
 71
     3
 72
    13
 73
     9
 74
     0
 42
0.0000000001
 43
0.0000000001
 40
0.0
 40
0.0
 40
0.0
 40
0.0
 40
0.0876034865927682
 40
0.1633834879133184
 40
0.3033602437049218
 40
0.4266564189877515
 40
0.487622525187018
 40
0.5630401513763821
 40
0.5630401513763821
 40
0.5630401513763821
 40
0.5630401513763821
 10
1174.647329729037
 20
1201.623977058556
 30
0.0
 10
1174.618285898477
 20
1201.623242556147
 30
0.0
 10
1174.5633902648
 20
1201.619129028781
 30
0.0
 10
1174.465957621348
 20
1201.592553844733
 30
0.0
 10
1174.368432523595
 20
1201.527312850022
 30
0.0
 10
1174.326657459476
 20
1201.421324529355
 30
0.0
 10
1174.342075375455
 20
1201.334184817725
 30
0.0
 10
1174.361709382978
 20
1201.293456545388
 30
0.0
 10
1174.373151957277
 20
1201.270845945159
 30
0.0
  0
SPLINE
  5
C0
330
1F
100
AcDbEntity
  8
Table_Miura_9553-71_2D
100
AcDbSpline
210
0.0
220
0.0
230
1.0
 70
    24
 71
     2
 72
     6
 73
     3
 74
     0
 42
0.0000000001
 43
0.0000000001
 40
0.0
 40
0.0
 40
0.0
 40
0.443128027777323
 40
0.443128027777323
 40
0.443128027777323
 10
1174.373151957277
 20
1201.270845945159
 30
0.0
 10
1174.472270674093
 20
1201.072607320876
 30
0.0
 10
1174.571389390908
 20
1200.874368696593
 30
0.0
  0
SPLINE
  5
C1
330
1F
100
AcDbEntity
  8
Table_Miura_9553-71_2D
100
AcDbSpline
210
0.0
220
0.0
230
1.0
 70
     8
 71
     3
 72
    14
 73
    10
 74
     0
 42
0.0000000001
 43
0.0000000001
 40
0.0
 40
0.0
 40
0.0
 40
0.0
 40
0.1878442759905428
 40
0.377592525096296
 40
0.6122387701456025
 40
0.8889786116689306
 40
1.581028401171428
 40
1.879577165562933
 40
2.132521340345824
 40
2.132521340345824
 40
2.132521340345824
 40
2.132521340345824
 10
1174.571389390908
 20
1200.874368696593
 30
0.0
 10
1174.598987569412
 20
1200.81811925978
 30
0.0
 10
1174.658238415648
 20
1200.70672903951
 30
0.0
 10
1174.776604063201
 20
1200.540153823456
 30
0.0
 10
1174.927332707035
 20
1200.361359713664
 30
0.0
 10
1175.204654202661
 20
1200.071333485168
 30
0.0
 10
1175.516548175104
 20
1199.785835906671
 30
0.0
 10
1175.838844699588
 20
1199.524997325664
 30
0.0
 10
1175.989848543144
 20
1199.419852480608
 30
0.0
 10
1176.060980006673
 20
1199.374402228623
 30
0.0
  0
SPLINE
  5
C2
330
1F
100
AcDbEntity
  8
Table_Miura_9553-71_2D
100
AcDbSpline
210
0.0
220
0.0
230
1.0
 70
     8
 71
     3
 72
    11
 73
     7
 74
     0
 42
0.0000000001
 43
0.0000000001
 40
0.0
 40
0.0
 40
0.0
 40
0.0
 40
3.125176035128538
 40
6.095599655767289
 40
12.14563159808566
 40
24.32538406836998
 40
24.32538406836998
 40
24.32538406836998
 40
24.32538406836998
 10
1176.060980006673
 20
1199.374402228623
 30
0.0
 10
1176.934422325636
 20
1198.806605384201
 30
0.0
 10
1178.678599839924
 20
1197.761317098358
 30
0.0
 10
1182.293422956303
 20
1195.933251056847
 30
0.0
 10
1188.919952098986
 20
1193.425163359409
 30
0.0
 10
1194.995568113725
 20
1192.536841842486
 30
0.0
 10
1199.055613524813
 20
1192.537200180528
 30
0.0
  0
SPLINE
  5
C3
330
1F
100
AcDbEntity
  8
Table_Miura_9553-71_2D
100
AcDbSpline
210
0.0
220
0.0
230
1.0
 70
     8
 71
     3
 72
    12
 73
     8
 74
     0
 42
0.0000000001
 43
0.0000000001
 40
0.0
 40
0.0
 40
0.0
 40
0.0
 40
3.067510030199397
 40
6.111020822346612
 40
12.08884398209748
 40
18.2299956540746
 40
24.32566676622235
 40
24.32566676622235
 40
24.32566676622235
 40
24.32566676622235
 10
1199.055613524813
 20
1192.537200180528
 30
0.0
 10
1200.078123670923
 20
1192.53713591888
 30
0.0
 10
1202.115095317517
 20
1192.612325511902
 30
0.0
 10
1206.123301965009
 20
1193.051718810715
 30
0.0
 10
1211.072089831777
 20
1194.139882587679
 30
0.0
 10
1216.768236652878
 20
1196.287844672135
 30
0.0
 10
1220.3468373433
 20
1198.267061979301
 30
0.0
 10
1222.050423032787
 20
1199.374451088429
 30
0.0
  0
SPLINE
  5
C4
330
1F
100
AcDbEntity
  8
Table_Miura_9553-71_2D
100
AcDbSpline
210
0.0
220
0.0
230
1.0
 70
     8
 71
     3
 72
    16
 73
    12
 74
     0
 42
0.0000000001
 43
0.0000000001
 40
0.0
 40
0.0
 40
0.0
 40
0.0
 40
0.1493864394124331
 40
0.279355901656456
 40
0.5550513490148505
 40
0.8392020165335361
 40
1.095708427849607
 40
1.300439052038602
 40
1.480820944991986
 40
1.644774875639234
 40
1.839449949945526
 40
1.839449949945526
 40
1.839449949945526
 40
1.839449949945526
 10
1222.050423032787
 20
1199.374451088429
 30
0.0
 10
1222.092224156538
 20
1199.401525444173
 30
0.0
 10
1222.169944199617
 20
1199.45289125351
 30
0.0
 10
1222.3167626725
 20
1199.565692965464
 30
0.0
 10
1222.484187322586
 20
1199.723987575704
 30
0.0
 10
1222.657815963499
 20
1199.934178109996
 30
0.0
 10
1222.788864831196
 20
1200.146179030102
 30
0.0
 10
1222.868819789687
 20
1200.345518192485
 30
0.0
 10
1222.897389046907
 20
1200.527973314825
 30
0.0
 10
1222.871474844104
 20
1200.707951843056
 30
0.0
 10
1222.819043411615
 20
1200.816669384517
 30
0.0
 10
1222.78988673269
 20
1200.874442456578
 30
0.0
  0
SPLINE
  5
C5
330
1F
100
AcDbEntity
  8
Table_Miura_9553-71_2D
100
AcDbSpline
210
0.0
220
0.0
230
1.0
 70
    24
 71
     2
 72
     6
 73
     3
 74
     0
 42
0.0000000001
 43
0.0000000001
 40
0.0
 40
0.0
 40
0.0
 40
0.4432407273142657
 40
0.4432407273142657
 40
0.4432407273142657
 10
1222.78988673269
 20
1200.874442456578
 30
0.0
 10
1222.690766571949
 20
1201.072681999425
 30
0.0
 10
1222.591646411208
 20
1201.270921542271
 30
0.0
  0
SPLINE
  5
C6
330
1F
100
AcDbEntity
  8
Table_Miura_9553-71_2D
100
AcDbSpline
210
0.0
220
0.0
230
1.0
 70
     8
 71
     3
 72
    12
 73
     8
 74
     0
 42
0.0000000001
 43
0.0000000001
 40
0.0
 40
0.0
 40
0.0
 40
0.0
 40
0.0783339057735422
 40
0.1543752911000592
 40
0.3458434999895036
 40
0.5566067183729958
 40
0.745730808072604
 40
0.745730808072604
 40
0.745730808072604
 40
0.745730808072604
 10
1222.591646411208
 20
1201.270921542271
 30
0.0
 10
1222.580212178514
 20
1201.294363225844
 30
0.0
 10
1222.555592288477
 20
1201.339846336868
 30
0.0
 10
1222.478654647949
 20
1201.426690114328
 30
0.0
 10
1222.346703302553
 20
1201.518059272227
 30
0.0
 10
1222.165659815297
 20
1201.598319994079
 30
0.0
 10
1222.033286451815
 20
1201.622202741954
 30
0.0
 10
1221.970233794269
 20
1201.623773649071
 30
0.0
  0
SPLINE
  5
C7
330
1F
100
AcDbEntity
  8
Table_Miura_9553-71_2D
100
AcDbSpline
210
0.0
220
0.0
230
1.0
 70
    12
 71
     3
 72
    54
 73
    50
 74
     0
 42
0.0000000001
 43
0.0000000001
 40
-36.3735092767428
 40
-36.3735092767428
 40
-36.3735092767428
 40
-36.3735092767428
 40
-35.65104266691848
 40
-35.51144398999158
 40
-35.26611209216915
 40
-35.10822082106449
 40
-35.01354362312179
 40
-34.93913335904487
 40
-34.75994055350136
 40
-34.55514104781033
 40
-34.31738447665442
 40
-34.04971475097287
 40
-33.6579291230507
 40
-33.23516828083971
 40
-32.29041859629452
 40
-31.25837170456729
 40
-30.19949178401347
 40
-30.19949178401347
 40
-30.19949178401347
 40
-29.4960952416352
 40
-29.4960952416352
 40
-28.79304492415562
 40
-28.79304492415562
 40
-28.79304492415562
 40
-20.11557317593713
 40
-20.11557317593713
 40
-20.11557317593713
 40
-8.532726005168029
 40
-8.532726005168029
 40
-8.532726005168029
 40
-8.268823246790324
 40
-8.268823246790324
 40
-8.268823246790324
 40
-7.12177540320921
 40
-7.12177540320921
 40
-7.12177540320921
 40
-5.332336009370442
 40
-3.594248314605103
 40
-2.749108168344542
 40
-1.884922955709098
 40
-1.047676823306014
 40
-0.6247475337379003
 40
-0.1840573543565883
 40
-0.1840573543565883
 40
-0.1840573543565883
 40
-0.0163079898344346
 40
-0.0163079898344346
 40
-0.0163079898344346
 40
0.0
 40
0.0
 40
0.0
 40
0.0
 10
1002.676063424017
 20
1574.329368904135
 30
0.0
 41
0.9999995248451568
 10
1002.917097487859
 20
1574.329374545787
 30
0.0
 41
0.9999995248451568
 10
1003.204452578395
 20
1574.329358270411
 30
0.0
 41
0.9999995248451568
 10
1003.573573889911
 20
1574.329477931449
 30
0.0
 41
0.9999995248451568
 10
1003.754579808744
 20
1574.328700964724
 30
0.0
 41
0.9999995248451568
 10
1003.920406879941
 20
1574.330617164041
 30
0.0
 41
0.9999995248451568
 10
1004.029643199779
 20
1574.3278092522
 30
0.0
 41
0.9999995248451568
 10
1004.14366393803
 20
1574.304426769953
 30
0.0
 41
0.9999995248451568
 10
1004.286274018833
 20
1574.247015399546
 30
0.0
 41
0.9999995248451568
 10
1004.460068264244
 20
1574.1326874068
 30
0.0
 41
0.9999995248451568
 10
1004.636423072827
 20
1573.973998133799
 30
0.0
 41
0.9999995248451568
 10
1004.833337213329
 20
1573.748250701771
 30
0.0
 41
0.9999995248451568
 10
1005.038759979924
 20
1573.45111251481
 30
0.0
 41
0.9999995248451568
 10
1005.321924937661
 20
1572.936663861322
 30
0.0
 41
0.9999995248451568
 10
1005.617902920869
 20
1572.191413428314
 30
0.0
 41
0.9999995248451568
 10
1005.867397562699
 20
1571.208856528363
 30
0.0
 41
0.9999995248451568
 10
1005.961514331666
 20
1570.517265471871
 30
0.0
 41
0.9999995248451568
 10
1005.9904848531
 20
1570.165478543332
 30
0.0
 41
0.9999995248451568
 10
1006.009824628765
 20
1569.931605082913
 30
0.0
 41
0.9999995248451568
 10
1006.069580081129
 20
1569.719608962123
 30
0.0
 41
0.9999995248451568
 10
1006.253955043557
 20
1569.413081583171
 30
0.0
 41
0.9999995248451568
 10
1006.372387698344
 20
1569.329363550869
 30
0.0
 41
0.9999995248451568
 10
1006.498317993549
 20
1569.329368897972
 30
0.0
 41
0.9999995248451568
 10
1009.39080857629
 20
1569.329368915933
 30
0.0
 41
0.9999995248451568
 10
1012.283299159029
 20
1569.329368921265
 30
0.0
 41
0.9999995248451568
 10
1015.175789741768
 20
1569.329368913973
 30
0.0
 41
0.9999995248451568
 10
1019.03673879869
 20
1569.329368899293
 30
0.0
 41
0.9999995248451568
 10
1022.897687855614
 20
1569.329368884613
 30
0.0
 41
0.9999995248451568
 10
1026.758636912536
 20
1569.329368869933
 30
0.0
 41
0.9999995248451568
 10
1026.846858932134
 20
1569.329353237981
 30
0.0
 41
0.9942088042594845
 10
1026.934271895846
 20
1569.341106417996
 30
0.0
 41
0.9942086996797163
 10
1027.019357277502
 20
1569.364424239052
 30
0.0
 41
0.9999992111058521
 10
1027.409774357518
 20
1569.471828591377
 30
0.0
 41
0.8933366331508512
 10
1027.679640764939
 20
1569.773850652458
 30
0.0
 41
0.8933368961155672
 10
1027.742602441812
 20
1570.173846675595
 30
0.0
 41
1.0
 10
1027.835484552426
 20
1570.762864821263
 30
0.0
 41
1.0
 10
1028.212287612613
 20
1571.89517104139
 30
0.0
 41
1.0
 10
1029.133434703419
 20
1573.054908735723
 30
0.0
 41
1.0
 10
1030.070843292869
 20
1573.728727614815
 30
0.0
 41
1.0
 10
1030.843199539505
 20
1574.089504146561
 30
0.0
 41
1.0
 10
1031.532440324439
 20
1574.264989736191
 30
0.0
 41
1.0
 10
1032.09654007476
 20
1574.327935966682
 30
0.0
 41
1.0
 10
1032.384735352698
 20
1574.330379067773
 30
0.0
 41
1.0
 10
1032.531580298624
 20
1574.329905991544
 30
0.0
 41
1.0
 10
1032.587496752427
 20
1574.329906652167
 30
0.0
 41
0.999999999998273
 10
1032.6434132137
 20
1574.329868535264
 30
0.0
 41
0.999999999998273
 10
1032.699329682443
 20
1574.329791640836
 30
0.0
 41
1.0
 10
1032.704765687808
 20
1574.329704196487
 30
0.0
 41
0.9999999998057724
 10
1032.69420713324
 20
1574.329442149315
 30
0.0
 41
0.9999999998057724
 10
1032.699643018846
 20
1574.329476888949
 30
0.0
 41
1.0
  0
SPLINE
  5
C8
330
1F
100
AcDbEntity
  8
Table_Miura_9553-71_2D
100
AcDbSpline
210
0.0
220
0.0
230
1.0
 70
    12
 71
     2
 72
     6
 73
     3
 74
     0
 42
0.0000000001
 43
0.0000000001
 40
0.0
 40
0.0
 40
0.0
 40
0.0159951658560524
 40
0.0159951658560524
 40
0.0159951658560524
 10
1032.699643018846
 20
1574.329476888949
 30
0.0
 41
1.0
 10
1032.70764043886
 20
1574.329527998826
 30
0.0
 41
0.9999999249432411
 10
1032.715637896077
 20
1574.329572911572
 30
0.0
 41
1.0
  0
SPLINE
  5
C9
330
1F
100
AcDbEntity
  8
Table_Miura_9553-71_2D
100
AcDbSpline
210
0.0
220
0.0
230
1.0
 70
    12
 71
     2
 72
     6
 73
     3
 74
     0
 42
0.0000000001
 43
0.0000000001
 40
0.0
 40
0.0
 40
0.0
 40
7.460028192515835
 40
7.460028192515835
 40
7.460028192515835
 10
1032.715637896077
 20
1574.329572911572
 30
0.0
 41
1.0
 10
1036.445651983774
 20
1574.329272931278
 30
0.0
 41
0.9999999985914357
 10
1040.175666082301
 20
1574.329368904136
 30
0.0
 41
1.0
  0
SPLINE
  5
CA
330
1F
100
AcDbEntity
  8
Table_Miura_9553-71_2D
100
AcDbSpline
210
0.0
220
0.0
230
1.0
 70
    12
 71
     2
 72
     6
 73
     3
 74
     0
 42
0.0000000001
 43
0.0000000001
 40
-5.848452852216105
 40
-5.848452852216105
 40
-5.848452852216105
 40
0.0
 40
0.0
 40
0.0
 10
1040.175666082301
 20
1574.329368904136
 30
0.0
 41
1.0
 10
1043.099892508835
 20
1574.329411563026
 30
0.0
 41
0.9999999996213539
 10
1046.02411893329
 20
1574.32929327868
 30
0.0
 41
1.0
  0
SPLINE
  5
CB
330
1F
100
AcDbEntity
  8
Table_Miura_9553-71_2D
100
AcDbSpline
210
0.0
220
0.0
230
1.0
 70
     8
 71
     3
 72
    15
 73
    11
 74
     0
 42
0.0000000001
 43
0.0000000001
 40
-5.517215510995962
 40
-5.517215510995962
 40
-5.517215510995962
 40
-5.517215510995962
 40
-4.927738640847089
 40
-4.318670834827658
 40
-3.704388331691281
 40
-3.058194976662103
 40
-2.377907408399816
 40
-1.641856638493278
 40
-0.8506135065108557
 40
0.0
 40
0.0
 40
0.0
 40
0.0
 10
1046.02411893329
 20
1574.32929327868
 30
0.0
 10
1046.218974704233
 20
1574.303963435888
 30
0.0
 10
1046.610032473785
 20
1574.213039185404
 30
0.0
 10
1047.1618578102
 20
1573.958989154745
 30
0.0
 10
1047.667414750969
 20
1573.589803432676
 30
0.0
 10
1048.113162364707
 20
1573.117513569599
 30
0.0
 10
1048.497901591889
 20
1572.545328878713
 30
0.0
 10
1048.817885302415
 20
1571.880873634562
 30
0.0
 10
1049.072658653709
 20
1571.129004317821
 30
0.0
 10
1049.194472210213
 20
1570.586645756143
 30
0.0
 10
1049.244438155437
 20
1570.307565641614
 30
0.0
  0
SPLINE
  5
CC
330
1F
100
AcDbEntity
  8
Table_Miura_9553-71_2D
100
AcDbSpline
210
0.0
220
0.0
230
1.0
 70
    12
 71
     2
 72
     6
 73
     3
 74
     0
 42
0.0000000001
 43
0.0000000001
 40
-0.3761526883931789
 40
-0.3761526883931789
 40
-0.3761526883931789
 40
0.0
 40
0.0
 40
0.0
 10
1049.244438155437
 20
1570.307565641614
 30
0.0
 41
1.0
 10
1049.277583944638
 20
1570.122432935632
 30
0.0
 41
0.9999989203661542
 10
1049.311273674505
 20
1569.937398440828
 30
0.0
 41
1.0
  0
SPLINE
  5
CD
330
1F
100
AcDbEntity
  8
Table_Miura_9553-71_2D
100
AcDbSpline
210
0.0
220
0.0
230
1.0
 70
     8
 71
     3
 72
    11
 73
     7
 74
     0
 42
0.0000000001
 43
0.0000000001
 40
0.0081002585430663
 40
0.0081002585430663
 40
0.0081002585430663
 40
0.0081002585430663
 40
0.7699006330026301
 40
0.7699006330026301
 40
0.7699006330026301
 40
3.675276053828606
 40
3.675276053828606
 40
3.675276053828606
 40
3.675276053828606
 10
1049.311273674505
 20
1569.937398440828
 30
0.0
 10
1049.356795121813
 20
1569.68738046684
 30
0.0
 10
1049.516341472786
 20
1569.329368868886
 30
0.0
 10
1049.77022884818
 20
1569.329368869932
 30
0.0
 10
1050.73868732179
 20
1569.329368873922
 30
0.0
 10
1051.707145795398
 20
1569.329368877912
 30
0.0
 10
1052.675604269006
 20
1569.329368887886
 30
0.0
  0
SPLINE
  5
CE
330
1F
100
AcDbEntity
  8
Table_Miura_9553-71_2D
100
AcDbSpline
210
0.0
220
0.0
230
1.0
 70
     8
 71
     3
 72
    20
 73
    16
 74
     0
 42
0.0000000001
 43
0.0000000001
 40
-431.4835608872114
 40
-431.4835608872114
 40
-431.4835608872114
 40
-431.4835608872114
 40
-25.59720475510172
 40
-25.59720475510172
 40
-25.59720475510172
 40
-23.041181434814
 40
-22.35224480279041
 40
-22.35224480279041
 40
-22.35224480279041
 40
-20.7744918917307
 40
-0.3474546757883483
 40
-0.3474546757883483
 40
-0.3474546757883483
 40
0.9942450456762051
 40
2.821104559269469
 40
2.821104559269469
 40
2.821104559269469
 40
2.821104559269469
 10
707.6291743693741
 20
1201.62444980538
 30
0.0
 10
803.2974985571341
 20
1297.292788884927
 30
0.0
 10
898.9658227448948
 20
1392.961127964474
 30
0.0
 10
994.6341469326538
 20
1488.629467044021
 30
0.0
 10
995.2411686863628
 20
1489.227225372667
 30
0.0
 10
996.0151220722687
 20
1489.983187811748
 30
0.0
 10
996.8085547922816
 20
1490.718316509352
 30
0.0
 10
996.9778353419373
 20
1490.873491344486
 30
0.0
 10
997.3652696543318
 20
1491.228641748197
 30
0.0
 10
1002.861278345662
 20
1496.068661486724
 30
0.0
 10
1008.170941722477
 20
1501.700066277602
 30
0.0
 10
1014.525667396512
 20
1504.141038757287
 30
0.0
 10
1014.943089240453
 20
1504.301378524217
 30
0.0
 10
1015.958296476021
 20
1504.603179902949
 30
0.0
 10
1017.025257017229
 20
1504.744487176657
 30
0.0
 10
1017.63296222906
 20
1504.780854676521
 30
0.0
  0
SPLINE
  5
CF
330
1F
100
AcDbEntity
  8
Table_Miura_9553-71_2D
100
AcDbSpline
210
0.0
220
0.0
230
1.0
 70
    12
 71
     2
 72
     6
 73
     3
 74
     0
 42
0.0000000001
 43
0.0000000001
 40
0.0
 40
0.0
 40
0.0
 40
0.4549953359630086
 40
0.4549953359630086
 40
0.4549953359630086
 10
1017.632962229061
 20
1504.780854676521
 30
0.0
 41
1.0
 10
1017.864054904904
 20
1504.794684182495
 30
0.0
 41
0.9742292604962512
 10
1018.065554824615
 20
1504.908670420349
 30
0.0
 41
1.0
  0
SPLINE
  5
D0
330
1F
100
AcDbEntity
  8
Table_Miura_9553-71_2D
100
AcDbSpline
210
0.0
220
0.0
230
1.0
 70
    12
 71
     2
 72
     6
 73
     3
 74
     0
 42
0.0000000001
 43
0.0000000001
 40
0.0
 40
0.0
 40
0.0
 40
1.347660071043663
 40
1.347660071043663
 40
1.347660071043663
 10
1003.32406821649
 20
1574.329368903859
 30
0.0
 41
1.0
 10
1002.54555515692
 20
1574.151849928893
 30
0.0
 41
0.7814532184921709
 10
1002.546352419824
 20
1573.353354509445
 30
0.0
 41
1.0
  0
SPLINE
  5
D1
330
1F
100
AcDbEntity
  8
Table_Miura_9553-71_2D
100
AcDbSpline
210
0.0
220
0.0
230
1.0
 70
     8
 71
     3
 72
    13
 73
     9
 74
     0
 42
0.0000000001
 43
0.0000000001
 40
0.0
 40
0.0
 40
0.0
 40
0.0
 40
3.162722799211981
 40
5.963232700855801
 40
11.82659241116913
 40
23.58923876696889
 40
35.36859962543459
 40
47.14230545140192
 40
47.14230545140192
 40
47.14230545140192
 40
47.14230545140192
 10
1002.546352419824
 20
1573.353354509445
 30
0.0
 10
1002.548556653866
 20
1572.299185683066
 30
0.0
 10
1002.539837159389
 20
1570.311056380751
 30
0.0
 10
1002.364726221416
 20
1566.372116895033
 30
0.0
 10
1001.697316597939
 20
1559.591498948689
 30
0.0
 10
999.6638306039162
 20
1549.975806229335
 30
0.0
 10
995.5552372083072
 20
1538.910118279452
 30
0.0
 10
991.7621626763317
 20
1532.011828842212
 30
0.0
 10
989.6234768211567
 20
1528.721215760243
 30
0.0
  0
SPLINE
  5
D2
330
1F
100
AcDbEntity
  8
Table_Miura_9553-71_2D
100
AcDbSpline
210
0.0
220
0.0
230
1.0
 70
     8
 71
     5
 72
    12
 73
     6
 74
     0
 42
0.0000000001
 43
0.0000000001
 40
0.0
 40
0.0
 40
0.0
 40
0.0
 40
0.0
 40
0.0
 40
1.0
 40
1.0
 40
1.0
 40
1.0
 40
1.0
 40
1.0
 10
989.6234768211567
 20
1528.721215760243
 30
0.0
 10
988.305350743634
 20
1526.693127855754
 30
0.0
 10
986.9104251837466
 20
1524.714954651818
 30
0.0
 10
985.4282143561672
 20
1522.786996594217
 30
0.0
 10
983.8966254290577
 20
1520.911813110835
 30
0.0
 10
982.2851314374506
 20
1519.108015999297
 30
0.0
  0
SPLINE
  5
D3
330
1F
100
AcDbEntity
  8
Table_Miura_9553-71_2D
100
AcDbSpline
210
0.0
220
0.0
230
1.0
 70
     8
 71
     3
 72
    14
 73
    10
 74
     0
 42
0.0000000001
 43
0.0000000001
 40
0.0
 40
0.0
 40
0.0
 40
0.0
 40
0.9891480038174151
 40
2.048682505589698
 40
4.284630339927826
 40
5.914186096750434
 40
6.608070935285521
 40
9.47879807401191
 40
12.82201302314979
 40
12.82201302314979
 40
12.82201302314979
 40
12.82201302314979
 10
982.2851314374506
 20
1519.108015999297
 30
0.0
 10
982.0654612784142
 20
1518.862132117369
 30
0.0
 10
981.6068070903908
 20
1518.356173128401
 30
0.0
 10
980.6346502080812
 20
1517.309852845869
 30
0.0
 10
979.4968236373637
 20
1516.126321050875
 30
0.0
 10
978.4261710766507
 20
1515.047639186812
 30
0.0
 10
977.1992616132553
 20
1513.8260037995
 30
0.0
 10
975.5630678189232
 20
1512.205842153307
 30
0.0
 10
974.1027371774611
 20
1510.736878163647
 30
0.0
 10
973.3148998405207
 20
1509.948714118457
 30
0.0
  0
SPLINE
  5
D4
330
1F
100
AcDbEntity
  8
Table_Miura_9553-71_2D
100
AcDbSpline
210
0.0
220
0.0
230
1.0
 70
    24
 71
     2
 72
     6
 73
     3
 74
     0
 42
0.0000000001
 43
0.0000000001
 40
0.0
 40
0.0
 40
0.0
 40
436.0363564973099
 40
436.0363564973099
 40
436.0363564973099
 10
973.3148998405207
 20
1509.948714118457
 30
0.0
 10
819.152767428493
 20
1355.786582007362
 30
0.0
 10
664.9906350164651
 20
1201.624449896267
 30
0.0
  0
SPLINE
  5
D5
330
1F
100
AcDbEntity
  8
Table_Miura_9553-71_2D
100
AcDbSpline
210
0.0
220
0.0
230
1.0
 70
    12
 71
     5
 72
    12
 73
     6
 74
     0
 42
0.0000000001
 43
0.0000000001
 40
0.0589558208107204
 40
0.0589558208107204
 40
0.0589558208107204
 40
0.0589558208107204
 40
0.0589558208107204
 40
0.0589558208107204
 40
0.9432931329715263
 40
0.9432931329715263
 40
0.9432931329715263
 40
0.9432931329715263
 40
0.9432931329715263
 40
0.9432931329715263
 10
665.6609015114295
 20
1201.624043891251
 30
0.0
 41
1.0
 10
665.5317362501332
 20
1201.620489818242
 30
0.0
 41
1.0
 10
665.3645852110506
 20
1201.591749586607
 30
0.0
 41
1.0
 10
665.011810622053
 20
1201.433493061578
 30
0.0
 41
1.0
 10
664.930512272163
 20
1201.352194711645
 30
0.0
 41
1.0
 10
664.8492139221777
 20
1201.270896361709
 30
0.0
 41
1.0
  0
SPLINE
  5
D6
330
1F
100
AcDbEntity
  8
Table_Miura_9553-71_2D
100
AcDbSpline
210
0.0
220
0.0
230
1.0
 70
    12
 71
     2
 72
     6
 73
     3
 74
     0
 42
0.0000000001
 43
0.0000000001
 40
-0.5606600998610313
 40
-0.5606600998610313
 40
-0.5606600998610313
 40
0.0
 40
0.0
 40
0.0
 10
664.8492139221777
 20
1201.270896361709
 30
0.0
 41
1.0
 10
664.6509906691769
 20
1201.072673056294
 30
0.0
 41
0.9999999999999912
 10
664.4527673638354
 20
1200.874449803044
 30
0.0
 41
1.0
  0
SPLINE
  5
D7
330
1F
100
AcDbEntity
  8
Table_Miura_9553-71_2D
100
AcDbSpline
210
0.0
220
0.0
230
1.0
 70
    12
 71
     5
 72
    12
 73
     6
 74
     0
 42
0.0000000001
 43
0.0000000001
 40
0.0
 40
0.0
 40
0.0
 40
0.0
 40
0.0
 40
0.0
 40
0.8739897245742341
 40
0.8739897245742341
 40
0.8739897245742341
 40
0.8739897245742341
 40
0.8739897245742341
 40
0.8739897245742341
 10
664.4527673638354
 20
1200.874449803044
 30
0.0
 41
1.0
 10
664.3445875135271
 20
1200.7662699527
 30
0.0
 41
1.0
 10
664.2364076632489
 20
1200.658090102365
 30
0.0
 41
1.0
 10
664.1629979349978
 20
1200.53134658615
 30
0.0
 41
1.0
 10
664.1298869017714
 20
1200.391427148231
 30
0.0
 41
1.0
 10
664.131691739401
 20
1200.248268647582
 30
0.0
 41
1.0
  0
SPLINE
  5
D8
330
1F
100
AcDbEntity
  8
Table_Miura_9553-71_2D
100
AcDbSpline
210
0.0
220
0.0
230
1.0
 70
    12
 71
     2
 72
     6
 73
     3
 74
     0
 42
0.0000000001
 43
0.0000000001
 40
0.0
 40
0.0
 40
0.0
 40
0.2017970891503139
 40
0.2017970891503139
 40
0.2017970891503139
 10
664.131691739401
 20
1200.248268647582
 30
0.0
 41
1.0
 10
664.1334829877057
 20
1200.146880693276
 30
0.0
 41
0.9925431650836243
 10
664.1597537942912
 20
1200.048939024057
 30
0.0
 41
1.0
  0
SPLINE
  5
D9
330
1F
100
AcDbEntity
  8
Table_Miura_9553-71_2D
100
AcDbSpline
210
0.0
220
0.0
230
1.0
 70
     8
 71
     3
 72
    12
 73
     8
 74
     0
 42
0.0000000001
 43
0.0000000001
 40
0.0
 40
0.0
 40
0.0
 40
0.0
 40
0.0980656229116343
 40
0.2035418359053462
 40
0.4140500476026759
 40
0.6218932345208526
 40
0.8516964985803365
 40
0.8516964985803365
 40
0.8516964985803365
 40
0.8516964985803365
 10
664.1597537942912
 20
1200.048939024057
 30
0.0
 10
664.1680791749709
 20
1200.017311784979
 30
0.0
 10
664.1887436833099
 20
1199.952659089185
 30
0.0
 10
664.2435328135466
 20
1199.825702800678
 30
0.0
 10
664.3344417385682
 20
1199.675953888317
 30
0.0
 10
664.4765118204227
 20
1199.51204284854
 30
0.0
 10
664.5906687884139
 20
1199.420388861277
 30
0.0
 10
664.6522791015627
 20
1199.374141174929
 30
0.0
  0
SPLINE
  5
DA
330
1F
100
AcDbEntity
  8
Table_Miura_9553-71_2D
100
AcDbSpline
210
0.0
220
0.0
230
1.0
 70
     8
 71
     3
 72
    11
 73
     7
 74
     0
 42
0.0000000001
 43
0.0000000001
 40
0.0
 40
0.0
 40
0.0
 40
0.0
 40
2.743424606184174
 40
5.414828345882175
 40
10.77592486299058
 40
21.43397361190056
 40
21.43397361190056
 40
21.43397361190056
 40
21.43397361190056
 10
664.6522791015627
 20
1199.374141174929
 30
0.0
 10
665.3803784302322
 20
1198.820145025594
 30
0.0
 10
666.8616435513863
 20
1197.785690254441
 30
0.0
 10
669.9648727326043
 20
1195.97198992061
 30
0.0
 10
675.6996116017202
 20
1193.484354201734
 30
0.0
 10
681.0298702912409
 20
1192.574480219439
 30
0.0
 10
684.58242222143
 20
1192.538880078835
 30
0.0
  0
SPLINE
  5
DB
330
1F
100
AcDbEntity
  8
Table_Miura_9553-71_2D
100
AcDbSpline
210
0.0
220
0.0
230
1.0
 70
    12
 71
     2
 72
     6
 73
     3
 74
     0
 42
0.0000000001
 43
0.0000000001
 40
0.0
 40
0.0
 40
0.0
 40
0.5724594400308637
 40
0.5724594400308637
 40
0.5724594400308637
 10
684.58242222143
 20
1192.538880078835
 30
0.0
 41
1.0
 10
684.8686445431728
 20
1192.535995137135
 30
0.0
 41
0.9999625809148067
 10
685.1548739373916
 20
1192.538062560265
 30
0.0
 41
1.0
  0
SPLINE
  5
DC
330
1F
100
AcDbEntity
  8
Table_Miura_9553-71_2D
100
AcDbSpline
210
0.0
220
0.0
230
1.0
 70
     8
 71
     3
 72
    12
 73
     8
 74
     0
 42
0.0000000001
 43
0.0000000001
 40
0.0
 40
0.0
 40
0.0
 40
0.0
 40
2.73591608993206
 40
5.43493518296994
 40
10.74089733582064
 40
16.11138166064301
 40
21.52862391160747
 40
21.52862391160747
 40
21.52862391160747
 40
21.52862391160747
 10
685.1548739373916
 20
1192.538062560265
 30
0.0
 10
686.0668347675122
 20
1192.544558768947
 30
0.0
 10
687.8778323983583
 20
1192.632655379773
 30
0.0
 10
691.4311875748376
 20
1193.093881169942
 30
0.0
 10
695.7662812275526
 20
1194.194465607517
 30
0.0
 10
700.7047769347187
 20
1196.333825329609
 30
0.0
 10
703.742158213086
 20
1198.280484756173
 30
0.0
 10
705.1796616653987
 20
1199.374140329262
 30
0.0
  0
SPLINE
  5
DD
330
1F
100
AcDbEntity
  8
Table_Miura_9553-71_2D
100
AcDbSpline
210
0.0
220
0.0
230
1.0
 70
     8
 71
     3
 72
    12
 73
     8
 74
     0
 42
0.0000000001
 43
0.0000000001
 40
0.0
 40
0.0
 40
0.0
 40
0.0
 40
0.198582148184335
 40
0.4558823293423835
 40
1.173126657775418
 40
1.79495840075012
 40
2.266661781302043
 40
2.266661781302043
 40
2.266661781302043
 40
2.266661781302043
 10
705.1796616653987
 20
1199.374140329262
 30
0.0
 10
705.2328794501749
 20
1199.414362121564
 30
0.0
 10
705.3523653141251
 20
1199.508274412161
 30
0.0
 10
705.6529862229577
 20
1199.75840264418
 30
0.0
 10
706.054895054192
 20
1200.107169830697
 30
0.0
 10
706.5045597483399
 20
1200.509890031099
 30
0.0
 10
706.7678820973037
 20
1200.762034566389
 30
0.0
 10
706.8788358619517
 20
1200.874110665854
 30
0.0
  0
SPLINE
  5
DE
330
1F
100
AcDbEntity
  8
Table_Miura_9553-71_2D
100
AcDbSpline
210
0.0
220
0.0
230
1.0
 70
    24
 71
     2
 72
     6
 73
     3
 74
     0
 42
0.0000000001
 43
0.0000000001
 40
0.0
 40
0.0
 40
0.0
 40
0.0000154295494115
 40
0.0000154295494115
 40
0.0000154295494115
 10
706.8788358619517
 20
1200.874110665854
 30
0.0
 10
706.8786721104821
 20
1200.874280095806
 30
0.0
 10
706.8785083590125
 20
1200.874449525759
 30
0.0
  0
SPLINE
  5
DF
330
1F
100
AcDbEntity
  8
Table_Miura_9553-71_2D
100
AcDbSpline
210
0.0
220
0.0
230
1.0
 70
    12
 71
     3
 72
     8
 73
     4
 74
     0
 42
0.0000000001
 43
0.0000000001
 40
-0.2806769686640114
 40
-0.2806769686640114
 40
-0.2806769686640114
 40
-0.2806769686640114
 40
0.0
 40
0.0
 40
0.0
 40
0.0
 10
706.8785083590125
 20
1200.874449525759
 30
0.0
 41
1.0
 10
706.8789702546505
 20
1200.874449802474
 30
0.0
 41
1.0
 10
706.8791923424602
 20
1200.874449803036
 30
0.0
 41
1.0
 10
706.8791744818204
 20
1200.874449802505
 30
0.0
 41
1.0
  0
SPLINE
  5
E0
330
1F
100
AcDbEntity
  8
Table_Miura_9553-71_2D
100
AcDbSpline
210
0.0
220
0.0
230
1.0
 70
    24
 71
     2
 72
     6
 73
     3
 74
     0
 42
0.0000000001
 43
0.0000000001
 40
0.0
 40
0.0
 40
0.0
 40
0.5597389034968172
 40
0.5597389034968172
 40
0.5597389034968172
 10
706.8791744818204
 20
1200.874449802505
 30
0.0
 10
707.0769092864052
 20
1201.072510228037
 30
0.0
 10
707.27464409099
 20
1201.270570653569
 30
0.0
  0
SPLINE
  5
E1
330
1F
100
AcDbEntity
  8
Table_Miura_9553-71_2D
100
AcDbSpline
210
0.0
220
0.0
230
1.0
 70
    12
 71
     3
 72
     8
 73
     4
 74
     0
 42
0.0000000001
 43
0.0000000001
 40
-0.2809667047186584
 40
-0.2809667047186584
 40
-0.2809667047186584
 40
-0.2809667047186584
 40
0.0
 40
0.0
 40
0.0
 40
0.0
 10
707.27464409099
 20
1201.270570653569
 30
0.0
 41
1.0
 10
707.2753113808772
 20
1201.270893246851
 30
0.0
 41
1.0
 10
707.2756372448442
 20
1201.270896301501
 30
0.0
 41
1.0
 10
707.2756214446603
 20
1201.270896330702
 30
0.0
 41
1.0
  0
SPLINE
  5
E2
330
1F
100
AcDbEntity
  8
Table_Miura_9553-71_2D
100
AcDbSpline
210
0.0
220
0.0
230
1.0
 70
     8
 71
     3
 72
    13
 73
     9
 74
     0
 42
0.0000000001
 43
0.0000000001
 40
0.0
 40
0.0
 40
0.0
 40
0.0
 40
0.0759172290794612
 40
0.1358047706645862
 40
0.2547108411286943
 40
0.3727728321327626
 40
0.432687484436447
 40
0.5009095124335417
 40
0.5009095124335417
 40
0.5009095124335417
 40
0.5009095124335417
 10
707.2756214446603
 20
1201.270896330702
 30
0.0
 10
707.2935681379435
 20
1201.288687609983
 30
0.0
 10
707.3252888048041
 20
1201.321352695309
 30
0.0
 10
707.3669262099215
 20
1201.396388200204
 30
0.0
 10
707.370410756806
 20
1201.500571209244
 30
0.0
 10
707.3088173441442
 20
1201.585436773982
 30
0.0
 10
707.2319794398031
 20
1201.618364722944
 30
0.0
 10
707.1894351426911
 20
1201.62314131929
 30
0.0
 10
707.1666584455684
 20
1201.623957166642
 30
0.0
  0
SPLINE
  5
E3
330
1F
100
AcDbEntity
  8
Table_Miura_9553-71_2D
100
AcDbSpline
210
0.0
220
0.0
230
1.0
 70
    12
 71
     2
 72
     6
 73
     3
 74
     0
 42
0.0000000001
 43
0.0000000001
 40
0.0
 40
0.0
 40
0.0
 40
1.53375001570948
 40
1.53375001570948
 40
1.53375001570948
 10
1.026280588461611
 20
1569.328896022869
 30
0.0
 41
1.0
 10
0.0633539446471517
 20
1569.293150944538
 30
0.0
 41
0.7201171409990421
 10
0.063313779214092
 20
1568.329561078268
 30
0.0
 41
1.0
  0
SPLINE
  5
E4
330
1F
100
AcDbEntity
  8
Table_Miura_9553-71_2D
100
AcDbSpline
210
0.0
220
0.0
230
1.0
 70
    12
 71
     2
 72
     6
 73
     3
 74
     0
 42
0.0000000001
 43
0.0000000001
 40
0.0
 40
0.0
 40
0.0
 40
1.533750190017919
 40
1.533750190017919
 40
1.533750190017919
 10
0.063313779214092
 20
1568.329561078268
 30
0.0
 41
1.0
 10
0.0632736139953038
 20
1569.293151112833
 30
0.0
 41
0.7201170802944139
 10
-0.8996532042444082
 20
1569.328896029138
 30
0.0
 41
1.0
  0
SPLINE
  5
E5
330
1F
100
AcDbEntity
  8
Table_Miura_9553-71_2D
100
AcDbSpline
210
0.0
220
0.0
230
1.0
 70
    12
 71
     2
 72
     6
 73
     3
 74
     0
 42
0.0000000001
 43
0.0000000001
 40
0.0
 40
0.0
 40
0.0
 40
0.530875325286944
 40
0.530875325286944
 40
0.530875325286944
 10
7.48573445212363
 20
1502.869085044734
 30
0.0
 41
1.0
 10
7.717058154962148
 20
1502.999267095335
 30
0.0
 41
0.9999907493369285
 10
7.949493193780961
 20
1503.127454358834
 30
0.0
 41
1.0
  0
SPLINE
  5
E6
330
1F
100
AcDbEntity
  8
Table_Miura_9553-71_2D
100
AcDbSpline
210
0.0
220
0.0
230
1.0
 70
     8
 71
     3
 72
    13
 73
     9
 74
     0
 42
0.0000000001
 43
0.0000000001
 40
0.0
 40
0.0
 40
0.0
 40
0.0
 40
0.9782337425002417
 40
1.92275499347662
 40
2.84322828839396
 40
3.829522249011025
 40
5.764634216489107
 40
7.777214577453912
 40
7.777214577453912
 40
7.777214577453912
 40
7.777214577453912
 10
0.063313779214092
 20
1500.852395376235
 30
0.0
 10
0.3893990686622933
 20
1500.852548232704
 30
0.0
 10
1.030275238932824
 20
1500.875228811383
 30
0.0
 10
1.973627134613103
 20
1500.971723238494
 30
0.0
 10
2.911212400656346
 20
1501.130320186633
 30
0.0
 10
4.157997933509556
 20
1501.426068122198
 30
0.0
 10
5.716492134190355
 20
1501.961612728658
 30
0.0
 10
6.901000612245604
 20
1502.540260302204
 30
0.0
 10
7.485734452122721
 20
1502.869085044734
 30
0.0
  0
SPLINE
  5
E7
330
1F
100
AcDbEntity
  8
Table_Miura_9553-71_2D
100
AcDbSpline
210
0.0
220
0.0
230
1.0
 70
    12
 71
     2
 72
     6
 73
     3
 74
     0
 42
0.0000000001
 43
0.0000000001
 40
0.0
 40
0.0
 40
0.0
 40
0.5308753252867442
 40
0.5308753252867442
 40
0.5308753252867442
 10
-7.822865635351866
 20
1503.127454358834
 30
0.0
 41
1.0
 10
-7.590430596533835
 20
1502.999267095336
 30
0.0
 41
0.9999907493369194
 10
-7.359106893694536
 20
1502.869085044734
 30
0.0
 41
1.0
  0
SPLINE
  5
E8
330
1F
100
AcDbEntity
  8
Table_Miura_9553-71_2D
100
AcDbSpline
210
0.0
220
0.0
230
1.0
 70
     8
 71
     3
 72
    13
 73
     9
 74
     0
 42
0.0000000001
 43
0.0000000001
 40
0.0
 40
0.0
 40
0.0
 40
0.0
 40
1.019225064702818
 40
2.012580360965313
 40
3.947692328443181
 40
4.933986289060289
 40
5.854459583978036
 40
7.777214577454429
 40
7.777214577454429
 40
7.777214577454429
 40
7.777214577454429
 10
-7.359106893694536
 20
1502.869085044734
 30
0.0
 10
-7.062965562573173
 20
1502.702621077181
 30
0.0
 10
-6.468567849813246
 20
1502.390812323556
 30
0.0
 10
-5.267913384477345
 20
1501.851013989959
 30
0.0
 10
-4.031374278009628
 20
1501.426062810171
 30
0.0
 10
-2.784585461488553
 20
1501.130303142667
 30
0.0
 10
-1.52531926340422
 20
1500.917394925194
 30
0.0
 10
-0.5775887633614398
 20
1500.852931321469
 30
0.0
 10
0.063313779214092
 20
1500.852395376235
 30
0.0
  0
SPLINE
  5
E9
330
1F
100
AcDbEntity
  8
Table_Miura_9553-71_2D
100
AcDbSpline
210
0.0
220
0.0
230
1.0
 70
    12
 71
     2
 72
     6
 73
     3
 74
     0
 42
0.0000000001
 43
0.0000000001
 40
0.0
 40
0.0
 40
0.0
 40
0.0456162757198297
 40
0.0456162757198297
 40
0.0456162757198297
 10
-0.7120079973862298
 20
1504.804831295953
 30
0.0
 41
1.0
 10
-0.7342366348215349
 20
1504.799704920619
 30
0.0
 41
0.9997392900035
 10
-0.7566761357663049
 20
1504.795598724861
 30
0.0
 41
1.0
  0
POLYLINE
  5
EA
330
1F
100
AcDbEntity
  8
Table_Miura_9553-71_2D
100
AcDb2dPolyline
 66
     1
 10
0.0
 20
0.0
 30
0.0
  0
VERTEX
  5
EB
330
EA
100
AcDbEntity
  8
Table_Miura_9553-71_2D
100
AcDbVertex
100
AcDb2dVertex
 10
0.063313779214092
 20
1568.329561078268
 30
0.0
  0
VERTEX
  5
EC
330
EA
100
AcDbEntity
  8
Table_Miura_9553-71_2D
100
AcDbVertex
100
AcDb2dVertex
 10
0.0628884343935502
 20
1505.779281915671
 30
0.0
  0
SEQEND
  5
ED
330
EA
100
AcDbEntity
  8
Table_Miura_9553-71_2D
  0
SPLINE
  5
EE
330
1F
100
AcDbEntity
  8
Table_Miura_9553-71_2D
100
AcDbSpline
210
0.0
220
0.0
230
1.0
 70
     8
 71
     3
 72
    13
 73
     9
 74
     0
 42
0.0000000001
 43
0.0000000001
 40
0.0
 40
0.0
 40
0.0
 40
0.0
 40
0.0842084935809858
 40
0.1523207872208179
 40
0.275918593398183
 40
0.3976132335562294
 40
0.4611173083935368
 40
0.5436834943217633
 40
0.5436834943217633
 40
0.5436834943217633
 40
0.5436834943217633
 10
273.8573559408426
 20
1201.624545951966
 30
0.0
 10
273.829384591699
 20
1201.624514051903
 30
0.0
 10
273.7782211657253
 20
1201.621183327633
 30
0.0
 10
273.6895901984438
 20
1201.596008283911
 30
0.0
 10
273.6075369818895
 20
1201.520433781269
 30
0.0
 10
273.5995952997685
 20
1201.410463528133
 30
0.0
 10
273.6390307519271
 20
1201.329321300722
 30
0.0
 10
273.6701814928877
 20
1201.291710156924
 30
0.0
 10
273.6884336744791
 20
1201.271073564571
 30
0.0
  0
SPLINE
  5
EF
330
1F
100
AcDbEntity
  8
Table_Miura_9553-71_2D
100
AcDbSpline
210
0.0
220
0.0
230
1.0
 70
    24
 71
     2
 72
     6
 73
     3
 74
     0
 42
0.0000000001
 43
0.0000000001
 40
0.0
 40
0.0
 40
0.0
 40
0.5244136134753632
 40
0.5244136134753632
 40
0.5244136134753632
 10
273.6884336744791
 20
1201.271073564571
 30
0.0
 10
273.8602051088204
 20
1201.072729090719
 30
0.0
 10
274.0319765431616
 20
1200.874384616868
 30
0.0
  0
SPLINE
  5
F0
330
1F
100
AcDbEntity
  8
Table_Miura_9553-71_2D
100
AcDbSpline
210
0.0
220
0.0
230
1.0
 70
     8
 71
     3
 72
    12
 73
     8
 74
     0
 42
0.0000000001
 43
0.0000000001
 40
0.0
 40
0.0
 40
0.0
 40
0.0
 40
0.215147148445352
 40
0.4344126759933203
 40
1.014845999299492
 40
1.738325432821743
 40
2.240259627195611
 40
2.240259627195611
 40
2.240259627195611
 40
2.240259627195611
 10
274.0319765431616
 20
1200.874384616868
 30
0.0
 10
274.0790274007498
 20
1200.819823148697
 30
0.0
 10
274.1748442445199
 20
1200.711194344678
 30
0.0
 10
274.4111763335262
 20
1200.469035070052
 30
0.0
 10
274.7831818912776
 20
1200.123284846937
 30
0.0
 10
275.2369834781105
 20
1199.727779570024
 30
0.0
 10
275.5551954596406
 20
1199.471378043983
 30
0.0
 10
275.6919979062425
 20
1199.374500639892
 30
0.0
  0
SPLINE
  5
F1
330
1F
100
AcDbEntity
  8
Table_Miura_9553-71_2D
100
AcDbSpline
210
0.0
220
0.0
230
1.0
 70
     8
 71
     3
 72
    11
 73
     7
 74
     0
 42
0.0000000001
 43
0.0000000001
 40
0.0
 40
0.0
 40
0.0
 40
0.0
 40
2.849025153143938
 40
5.681848556468799
 40
11.31563454753918
 40
22.64754464670963
 40
22.64754464670963
 40
22.64754464670963
 40
22.64754464670963
 10
275.6919979062425
 20
1199.374500639892
 30
0.0
 10
276.4643261451668
 20
1198.821593611434
 30
0.0
 10
278.046946135116
 20
1197.778282463923
 30
0.0
 10
281.348674134549
 20
1195.949428046434
 30
0.0
 10
287.4703156910511
 20
1193.43030451879
 30
0.0
 10
293.1243145610082
 20
1192.537055716379
 30
0.0
 10
296.9017704073024
 20
1192.537390963457
 30
0.0
  0
SPLINE
  5
F2
330
1F
100
AcDbEntity
  8
Table_Miura_9553-71_2D
100
AcDbSpline
210
0.0
220
0.0
230
1.0
 70
     8
 71
     5
 72
    12
 73
     6
 74
     0
 42
0.0000000001
 43
0.0000000001
 40
-1.0
 40
-1.0
 40
-1.0
 40
-1.0
 40
-1.0
 40
-1.0
 40
0.0
 40
0.0
 40
0.0
 40
0.0
 40
0.0
 40
0.0
 10
296.9017704073024
 20
1192.537390963457
 30
0.0
 10
296.9707018609327
 20
1192.537397081085
 30
0.0
 10
297.039633299861
 20
1192.537568852974
 30
0.0
 10
297.108565478244
 20
1192.537897797503
 30
0.0
 10
297.177495381294
 20
1192.538389090304
 30
0.0
 10
297.246423701113
 20
1192.539046406012
 30
0.0
  0
SPLINE
  5
F3
330
1F
100
AcDbEntity
  8
Table_Miura_9553-71_2D
100
AcDbSpline
210
0.0
220
0.0
230
1.0
 70
     8
 71
     3
 72
    12
 73
     8
 74
     0
 42
0.0000000001
 43
0.0000000001
 40
0.0
 40
0.0
 40
0.0
 40
0.0
 40
2.765242495116511
 40
5.467131183712466
 40
11.12386283924205
 40
16.6939552205985
 40
22.3034199774177
 40
22.3034199774177
 40
22.3034199774177
 40
22.3034199774177
 10
297.246423701113
 20
1192.539046406012
 30
0.0
 10
298.1681354894466
 20
1192.547836053556
 30
0.0
 10
299.9897192294214
 20
1192.635645551196
 30
0.0
 10
303.6721391067288
 20
1193.09113691417
 30
0.0
 10
308.1976678964823
 20
1194.190424615094
 30
0.0
 10
313.3969702496809
 20
1196.346228390198
 30
0.0
 10
316.5913675446339
 20
1198.286305807732
 30
0.0
 10
318.1119312365893
 20
1199.374578723261
 30
0.0
  0
SPLINE
  5
F4
330
1F
100
AcDbEntity
  8
Table_Miura_9553-71_2D
100
AcDbSpline
210
0.0
220
0.0
230
1.0
 70
     8
 71
     3
 72
    16
 73
    12
 74
     0
 42
0.0000000001
 43
0.0000000001
 40
0.0
 40
0.0
 40
0.0
 40
0.0
 40
0.1450445684408275
 40
0.2674563255525638
 40
0.5165020686838146
 40
0.7647651081847263
 40
0.9971024939488223
 40
1.19489142016583
 40
1.37708050099132
 40
1.556352254818321
 40
1.789706299665248
 40
1.789706299665248
 40
1.789706299665248
 40
1.789706299665248
 10
318.1119312365893
 20
1199.374578723261
 30
0.0
 10
318.1513765444273
 20
1199.402720362809
 30
0.0
 10
318.223521079681
 20
1199.455179335003
 30
0.0
 10
318.3541223528403
 20
1199.567626404724
 30
0.0
 10
318.4925123124042
 20
1199.721979734786
 30
0.0
 10
318.6223725446101
 20
1199.928739789613
 30
0.0
 10
318.7045119886481
 20
1200.140788170973
 30
0.0
 10
318.7314965982198
 20
1200.344872978863
 30
0.0
 10
318.7021277972192
 20
1200.531193499599
 30
0.0
 10
318.6136005904693
 20
1200.71074176842
 30
0.0
 10
318.5238489877095
 20
1200.815864090906
 30
0.0
 10
318.4728161318856
 20
1200.874577364289
 30
0.0
  0
SPLINE
  5
F5
330
1F
100
AcDbEntity
  8
Table_Miura_9553-71_2D
100
AcDbSpline
210
0.0
220
0.0
230
1.0
 70
    24
 71
     2
 72
     6
 73
     3
 74
     0
 42
0.0000000001
 43
0.0000000001
 40
0.0
 40
0.0
 40
0.0
 40
0.5244495011189884
 40
0.5244495011189884
 40
0.5244495011189884
 10
318.4728161318856
 20
1200.874577364289
 30
0.0
 10
318.301059678902
 20
1201.072905383062
 30
0.0
 10
318.1293032259185
 20
1201.271233401834
 30
0.0
  0
SPLINE
  5
F6
330
1F
100
AcDbEntity
  8
Table_Miura_9553-71_2D
100
AcDbSpline
210
0.0
220
0.0
230
1.0
 70
     8
 71
     3
 72
    12
 73
     8
 74
     0
 42
0.0000000001
 43
0.0000000001
 40
0.0
 40
0.0
 40
0.0
 40
0.0
 40
0.0890023797843848
 40
0.1797960093845599
 40
0.411193526615116
 40
0.6556287843923316
 40
0.8529811660911645
 40
0.8529811660911645
 40
0.8529811660911645
 40
0.8529811660911645
 10
318.1293032259185
 20
1201.271233401834
 30
0.0
 10
318.1099912639277
 20
1201.293961206179
 30
0.0
 10
318.0691975870753
 20
1201.338089267453
 30
0.0
 10
317.9605209451614
 20
1201.422341782645
 30
0.0
 10
317.7939997646057
 20
1201.512598966067
 30
0.0
 10
317.5844931162522
 20
1201.594399176126
 30
0.0
 10
317.4389741323214
 20
1201.622248030025
 30
0.0
 10
317.3730842489279
 20
1201.62403185447
 30
0.0
  0
SPLINE
  5
F7
330
1F
100
AcDbEntity
  8
Table_Miura_9553-71_2D
100
AcDbSpline
210
0.0
220
0.0
230
1.0
 70
     8
 71
     3
 72
    13
 73
     9
 74
     0
 42
0.0000000001
 43
0.0000000001
 40
0.0
 40
0.0
 40
0.0
 40
0.0
 40
0.0902185093720015
 40
0.1761896831588625
 40
0.3455633168783852
 40
0.4948657949572023
 40
0.5565632593727951
 40
0.6273566248615841
 40
0.6273566248615841
 40
0.6273566248615841
 40
0.6273566248615841
 10
24.62216728430879
 20
1201.623920773043
 30
0.0
 10
24.65224497389257
 20
1201.622864029381
 30
0.0
 10
24.71081184100088
 20
1201.617700520035
 30
0.0
 10
24.82292027260549
 20
1201.588782680144
 30
0.0
 10
24.94307276429148
 20
1201.524551722473
 30
0.0
 10
25.03073562570838
 20
1201.429069079372
 30
0.0
 10
25.06258690119588
 20
1201.339139239295
 30
0.0
 10
25.0633436255151
 20
1201.294648951922
 30
0.0
 10
25.06333254704199
 20
1201.271087113736
 30
0.0
  0
SPLINE
  5
F8
330
1F
100
AcDbEntity
  8
Table_Miura_9553-71_2D
100
AcDbSpline
210
0.0
220
0.0
230
1.0
 70
    24
 71
     2
 72
     6
 73
     3
 74
     0
 42
0.0000000001
 43
0.0000000001
 40
0.0
 40
0.0
 40
0.0
 40
0.3964465280207605
 40
0.3964465280207605
 40
0.3964465280207605
 10
25.06333254704199
 20
1201.271087113736
 30
0.0
 10
25.06331916394296
 20
1201.072863849814
 30
0.0
 10
25.06330578084393
 20
1200.874640585892
 30
0.0
  0
SPLINE
  5
F9
330
1F
100
AcDbEntity
  8
Table_Miura_9553-71_2D
100
AcDbSpline
210
0.0
220
0.0
230
1.0
 70
     8
 71
     3
 72
    17
 73
    13
 74
     0
 42
0.0000000001
 43
0.0000000001
 40
0.0
 40
0.0
 40
0.0
 40
0.0
 40
0.096206427153708
 40
0.1738289297860724
 40
0.3373064891875309
 40
0.5367070411388807
 40
0.7755987407383814
 40
1.076140845210541
 40
1.396849041230189
 40
1.692620935227463
 40
1.82340452322402
 40
1.966221085738925
 40
1.966221085738925
 40
1.966221085738925
 40
1.966221085738925
 10
25.06330578084393
 20
1200.874640585892
 30
0.0
 10
25.063389466772
 20
1200.842557960743
 30
0.0
 10
25.06294995400943
 20
1200.784622275373
 30
0.0
 10
25.05024867984169
 20
1200.672615504698
 30
0.0
 10
25.00723285533908
 20
1200.531358800659
 30
0.0
 10
24.91335416988144
 20
1200.353373467428
 30
0.0
 10
24.77109541201329
 20
1200.15195059242
 30
0.0
 10
24.58325802031444
 20
1199.934919866819
 30
0.0
 10
24.36523635926491
 20
1199.720392322289
 30
0.0
 10
24.1745613274455
 20
1199.559751410207
 30
0.0
 10
24.0205374671535
 20
1199.448706142594
 30
0.0
 10
23.94352140120676
 20
1199.399806109393
 30
0.0
 10
23.90307074076494
 20
1199.374611018007
 30
0.0
  0
SPLINE
  5
FA
330
1F
100
AcDbEntity
  8
Table_Miura_9553-71_2D
100
AcDbSpline
210
0.0
220
0.0
230
1.0
 70
    24
 71
     2
 72
     6
 73
     3
 74
     0
 42
0.0000000001
 43
0.0000000001
 40
0.0
 40
0.0
 40
0.0
 40
0.0002289742124082
 40
0.0002289742124082
 40
0.0002289742124082
 10
23.90307074076494
 20
1199.374611018007
 30
0.0
 10
23.90271008185149
 20
1199.374384836409
 30
0.0
 10
23.90234942293804
 20
1199.374158654812
 30
0.0
  0
SPLINE
  5
FB
330
1F
100
AcDbEntity
  8
Table_Miura_9553-71_2D
100
AcDbSpline
210
0.0
220
0.0
230
1.0
 70
     8
 71
     3
 72
    25
 73
    21
 74
     0
 42
0.0000000001
 43
0.0000000001
 40
0.0
 40
0.0
 40
0.0
 40
0.0
 40
3.199464847565258
 40
6.339105644558495
 40
12.50811986083845
 40
18.76914410145589
 40
21.92709824290087
 40
23.5426726790446
 40
24.35047809908063
 40
24.73600031715062
 40
24.93791509714551
 40
25.02970318784148
 40
25.08478241549296
 40
25.10542804074602
 40
25.11450266261522
 40
25.12044633183926
 40
25.1237624889977
 40
25.12411320300106
 40
25.12426471033862
 40
25.12576885809665
 40
25.12576885809665
 40
25.12576885809665
 40
25.12576885809665
 10
23.90234942293804
 20
1199.374158654812
 30
0.0
 10
22.99740408043029
 20
1198.808760212443
 30
0.0
 10
21.16548309898584
 20
1197.753093051637
 30
0.0
 10
17.41392114702588
 20
1195.928161106196
 30
0.0
 10
12.52566809402318
 20
1194.148672446702
 30
0.0
 10
7.432392791815197
 20
1193.05882361327
 30
0.0
 10
3.772643884869772
 20
1192.669333491519
 30
0.0
 10
1.914594365741629
 20
1192.569965017145
 30
0.0
 10
0.9785773888409828
 20
1192.545408321113
 30
0.0
 10
0.5135425066813119
 20
1192.539314102769
 30
0.0
 10
0.2871379483361457
 20
1192.537873921567
 30
0.0
 10
0.17088037448351
 20
1192.537496812261
 30
0.0
 10
0.1150427511123203
 20
1192.537416535393
 30
0.0
 10
0.0867768248384314
 20
1192.537395782849
 30
0.0
 10
0.0748888851797679
 20
1192.537392372783
 30
0.0
 10
0.0688188461202449
 20
1192.537391115966
 30
0.0
 10
0.0654410403997977
 20
1192.537391056625
 30
0.0
 10
0.0648140152510101
 20
1192.537390896579
 30
0.0
 10
0.06480347850296
 20
1192.537390981176
 30
0.0
 10
0.0640403805940301
 20
1192.5373909618
 30
0.0
 10
0.0635520441176928
 20
1192.53739096427
 30
0.0
  0
SPLINE
  5
FC
330
1F
100
AcDbEntity
  8
Table_Miura_9553-71_2D
100
AcDbSpline
210
0.0
220
0.0
230
1.0
 70
     8
 71
     3
 72
    24
 73
    20
 74
     0
 42
0.0000000001
 43
0.0000000001
 40
0.0
 40
0.0
 40
0.0
 40
0.0
 40
0.0020036009973828
 40
0.0022547111946161
 40
0.0025058213907338
 40
0.0056257993892326
 40
0.0112405324588038
 40
0.0196887687594485
 40
0.0391810618505631
 40
0.0782064054519545
 40
0.1883614775428985
 40
0.3719392572588333
 40
0.7758219388728827
 40
1.546888493387027
 40
3.125770128814666
 40
6.302017912357492
 40
12.52633999402473
 40
18.76876323823666
 40
25.12637023077661
 40
25.12637023077661
 40
25.12637023077661
 40
25.12637023077661
 10
0.0635520441176928
 20
1192.53739096427
 30
0.0
 10
0.0628820791774493
 20
1192.537390961858
 30
0.0
 10
0.0619320018989461
 20
1192.537390989699
 30
0.0
 10
0.0617594412945769
 20
1192.537390899076
 30
0.0
 10
0.0615620387992172
 20
1192.53739102312
 30
0.0
 10
0.0577087083459779
 20
1192.537391188688
 30
0.0
 10
0.0525781685122061
 20
1192.53739202579
 30
0.0
 10
0.0409315112613845
 20
1192.537395751862
 30
0.0
 10
0.0191595302661304
 20
1192.537409692894
 30
0.0
 10
-0.0375652053968801
 20
1192.537482166217
 30
0.0
 10
-0.1481827875847224
 20
1192.537809877892
 30
0.0
 10
-0.3808720162502718
 20
1192.539261217687
 30
0.0
 10
-0.8335941782167205
 20
1192.545061373661
 30
0.0
 10
-1.751299682196679
 20
1192.568853206672
 30
0.0
 10
-3.591089690443062
 20
1192.664864384729
 30
0.0
 10
-7.233127846877927
 20
1193.047387856426
 30
0.0
 10
-12.34605566291763
 20
1194.132490244178
 30
0.0
 10
-18.2590426334015
 20
1196.277051094949
 30
0.0
 10
-21.978012334576
 20
1198.251229732788
 30
0.0
 10
-23.77591572065527
 20
1199.374281411859
 30
0.0
  0
SPLINE
  5
FD
330
1F
100
AcDbEntity
  8
Table_Miura_9553-71_2D
100
AcDbSpline
210
0.0
220
0.0
230
1.0
 70
     8
 71
     3
 72
    17
 73
    13
 74
     0
 42
0.0000000001
 43
0.0000000001
 40
0.0
 40
0.0
 40
0.0
 40
0.0
 40
0.1433371388019954
 40
0.2741217048581911
 40
0.5698915548391688
 40
0.8911637673394633
 40
1.191151497005835
 40
1.428512647803871
 40
1.628463248151063
 40
1.792814010234679
 40
1.870845827559429
 40
1.966221106772801
 40
1.966221106772801
 40
1.966221106772801
 40
1.966221106772801
 10
-23.77591572065527
 20
1199.374281411859
 30
0.0
 10
-23.81704215165579
 20
1199.399896047044
 30
0.0
 10
-23.89419923195025
 20
1199.448899381498
 30
0.0
 10
-24.04834292960611
 20
1199.560073571426
 30
0.0
 10
-24.23913525229606
 20
1199.720867171188
 30
0.0
 10
-24.45712016588974
 20
1199.935435452453
 30
0.0
 10
-24.64457730188648
 20
1200.152127387892
 30
0.0
 10
-24.78653692342838
 20
1200.353125328573
 30
0.0
 10
-24.88050167513817
 20
1200.531029015975
 30
0.0
 10
-24.92373739879228
 20
1200.67286142324
 30
0.0
 10
-24.93632052140371
 20
1200.785046537958
 30
0.0
 10
-24.93677921322129
 20
1200.842823716958
 30
0.0
 10
-24.93667822241574
 20
1200.874640585892
 30
0.0
  0
SPLINE
  5
FE
330
1F
100
AcDbEntity
  8
Table_Miura_9553-71_2D
100
AcDbSpline
210
0.0
220
0.0
230
1.0
 70
    24
 71
     2
 72
     6
 73
     3
 74
     0
 42
0.0000000001
 43
0.0000000001
 40
0.0
 40
0.0
 40
0.0
 40
0.3964465280207605
 40
0.3964465280207605
 40
0.3964465280207605
 10
-24.93667822241574
 20
1200.874640585892
 30
0.0
 10
-24.93669160551477
 20
1201.072863849814
 30
0.0
 10
-24.9367049886138
 20
1201.271087113736
 30
0.0
  0
SPLINE
  5
FF
330
1F
100
AcDbEntity
  8
Table_Miura_9553-71_2D
100
AcDbSpline
210
0.0
220
0.0
230
1.0
 70
     8
 71
     3
 72
    12
 73
     8
 74
     0
 42
0.0000000001
 43
0.0000000001
 40
0.0
 40
0.0
 40
0.0
 40
0.0
 40
0.0709674213477591
 40
0.1335862693837825
 40
0.2813937667596485
 40
0.4525062216997118
 40
0.627356896276153
 40
0.627356896276153
 40
0.627356896276153
 40
0.627356896276153
 10
-24.9367049886138
 20
1201.271087113736
 30
0.0
 10
-24.93681432470536
 20
1201.294705908663
 30
0.0
 10
-24.9358310565182
 20
1201.339561738693
 30
0.0
 10
-24.90392188212596
 20
1201.429341608856
 30
0.0
 10
-24.81596725973638
 20
1201.524793752201
 30
0.0
 10
-24.6691041108467
 20
1201.603501983252
 30
0.0
 10
-24.55371248873477
 20
1201.6224342071
 30
0.0
 10
-24.49553946909115
 20
1201.623914826447
 30
0.0
  0
SPLINE
  5
100
330
1F
100
AcDbEntity
  8
Table_Miura_9553-71_2D
100
AcDbSpline
210
0.0
220
0.0
230
1.0
 70
    24
 71
     2
 72
     6
 73
     3
 74
     0
 42
0.0000000001
 43
0.0000000001
 40
0.0
 40
0.0
 40
0.0
 40
286.5590223823231
 40
286.5590223823231
 40
286.5590223823231
 10
25.19331493896728
 20
1488.18366296406
 30
0.0
 10
25.19331493896728
 20
1344.904151772898
 30
0.0
 10
25.19331493896728
 20
1201.624640581736
 30
0.0
  0
LINE
  5
101
330
1F
100
AcDbEntity
  8
Table_Miura_9553-71_2D
100
AcDbLine
 10
25.19331493896728
 20
1201.624640581736
 30
0.0
 11
-25.06668738053911
 21
1201.624640581736
 31
0.0
  0
SPLINE
  5
102
330
1F
100
AcDbEntity
  8
Table_Miura_9553-71_2D
100
AcDbSpline
210
0.0
220
0.0
230
1.0
 70
    24
 71
     2
 72
     6
 73
     3
 74
     0
 42
0.0000000001
 43
0.0000000001
 40
0.0
 40
0.0
 40
0.0
 40
286.5590223823228
 40
286.5590223823228
 40
286.5590223823228
 10
-25.06668738053911
 20
1201.624640581736
 30
0.0
 10
-25.06668738053911
 20
1344.904151772898
 30
0.0
 10
-25.06668738053911
 20
1488.183662964059
 30
0.0
  0
SPLINE
  5
103
330
1F
100
AcDbEntity
  8
Table_Miura_9553-71_2D
100
AcDbSpline
210
0.0
220
0.0
230
1.0
 70
    12
 71
     2
 72
     6
 73
     3
 74
     0
 42
0.0000000001
 43
0.0000000001
 40
-11.69797561871451
 40
-11.69797561871451
 40
-11.69797561871451
 40
0.0
 40
0.0
 40
0.0
 10
0.0631011068038211
 20
1569.329559586947
 30
0.0
 41
1.0
 10
5.911982579955598
 20
1569.329559560044
 30
0.0
 41
1.0
 10
11.76086405310829
 20
1569.329559593053
 30
0.0
 41
1.0
  0
SPLINE
  5
104
330
1F
100
AcDbEntity
  8
Table_Miura_9553-71_2D
100
AcDbSpline
210
0.0
220
0.0
230
1.0
 70
    12
 71
     3
 72
    10
 73
     6
 74
     0
 42
0.0000000001
 43
0.0000000001
 40
0.0049548029583888
 40
0.0049548029583888
 40
0.0049548029583888
 40
0.0049548029583888
 40
0.7080503722075561
 40
0.7080503722075561
 40
1.41140165102152
 40
1.41140165102152
 40
1.41140165102152
 40
1.41140165102152
 10
11.76086405310829
 20
1569.329559593053
 30
0.0
 41
1.0
 10
11.97029706354473
 20
1569.329554225063
 30
0.0
 41
1.0
 10
12.17069895274229
 20
1569.413277682937
 30
0.0
 41
1.0
 10
12.48608633775469
 20
1569.719822971764
 30
0.0
 41
1.0
 10
12.59003838891689
 20
1569.931807588383
 30
0.0
 41
1.0
 10
12.62363227461386
 20
1570.165669326354
 30
0.0
 41
1.0
  0
SPLINE
  5
105
330
1F
100
AcDbEntity
  8
Table_Miura_9553-71_2D
100
AcDbSpline
210
0.0
220
0.0
230
1.0
 70
     8
 71
     3
 72
    18
 73
    14
 74
     0
 42
0.0000000001
 43
0.0000000001
 40
0.0
 40
0.0
 40
0.0
 40
0.0
 40
1.285072805565842
 40
2.530514856758515
 40
3.713958932632885
 40
4.870777299577193
 40
5.506991273313296
 40
5.827549416049516
 40
6.129926738348678
 40
6.413782533532998
 40
6.716881895257425
 40
7.387935346890758
 40
11.35744832993483
 40
11.35744832993483
 40
11.35744832993483
 40
11.35744832993483
 10
12.62363227461386
 20
1570.165669326354
 30
0.0
 10
12.6844133140988
 20
1570.589646144827
 30
0.0
 10
12.89629598341102
 20
1571.411710164242
 30
0.0
 10
13.47197136182543
 20
1572.517039658991
 30
0.0
 10
14.26543630321006
 20
1573.423360875676
 30
0.0
 10
15.10105917126869
 20
1573.976834768926
 30
0.0
 10
15.76741811032056
 20
1574.215682570289
 30
0.0
 10
16.17910627154773
 20
1574.299174753915
 30
0.0
 10
16.48027524750099
 20
1574.330307635043
 30
0.0
 10
16.77687388042281
 20
1574.329974698963
 30
0.0
 10
17.19616523417275
 20
1574.329405245282
 30
0.0
 10
18.84408024383477
 20
1574.329753711556
 30
0.0
 10
20.39091131707058
 20
1574.329448695525
 30
0.0
 10
21.71409145372248
 20
1574.329559687163
 30
0.0
  0
LINE
  5
106
330
1F
100
AcDbEntity
  8
Table_Miura_9553-71_2D
100
AcDbLine
 10
21.71409145372248
 20
1574.329559687163
 30
0.0
 11
23.9158325105603
 21
1574.329652031157
 31
0.0
  0
SPLINE
  5
107
330
1F
100
AcDbEntity
  8
Table_Miura_9553-71_2D
100
AcDbSpline
210
0.0
220
0.0
230
1.0
 70
     8
 71
     3
 72
    15
 73
    11
 74
     0
 42
0.0000000001
 43
0.0000000001
 40
-3.919177605417825
 40
-3.919177605417825
 40
-3.919177605417825
 40
-3.919177605417825
 40
-3.588551735127003
 40
-3.247808135525446
 40
-2.899529664530076
 40
-2.520270126564128
 40
-2.107271700881923
 40
-1.592389293923228
 40
-0.9361505302432512
 40
0.0
 40
0.0
 40
0.0
 40
0.0
 10
23.9158325105603
 20
1574.329652031157
 30
0.0
 10
24.02371218147922
 20
1574.30707650062
 30
0.0
 10
24.23634536147468
 20
1574.23052724228
 30
0.0
 10
24.51483210159616
 20
1574.030100269508
 30
0.0
 10
24.74074548711118
 20
1573.751102191037
 30
0.0
 10
24.90456053917692
 20
1573.405640170999
 30
0.0
 10
25.01861121047144
 20
1572.984034499224
 30
0.0
 10
25.09712285850613
 20
1572.461353402819
 30
0.0
 10
25.15336541485552
 20
1571.760985292166
 30
0.0
 10
25.17554239356772
 20
1571.230600485721
 30
0.0
 10
25.18739855902216
 20
1570.918781191212
 30
0.0
  0
SPLINE
  5
108
330
1F
100
AcDbEntity
  8
Table_Miura_9553-71_2D
100
AcDbSpline
210
0.0
220
0.0
230
1.0
 70
     8
 71
     5
 72
    12
 73
     6
 74
     0
 42
0.0000000001
 43
0.0000000001
 40
0.0
 40
0.0
 40
0.0
 40
0.0
 40
0.0
 40
0.0
 40
1.0
 40
1.0
 40
1.0
 40
1.0
 40
1.0
 40
1.0
 10
25.18739855902216
 20
1570.918781191212
 30
0.0
 10
25.19312274613124
 20
1570.768234035577
 30
0.0
 10
25.19861768382483
 20
1570.617678163295
 30
0.0
 10
25.20321256004566
 20
1570.467090175988
 30
0.0
 10
25.20824015582761
 20
1570.316517921998
 30
0.0
 10
25.21352836521631
 20
1570.165954821508
 30
0.0
  0
SPLINE
  5
109
330
1F
100
AcDbEntity
  8
Table_Miura_9553-71_2D
100
AcDbSpline
210
0.0
220
0.0
230
1.0
 70
    12
 71
     2
 72
     6
 73
     3
 74
     0
 42
0.0000000001
 43
0.0000000001
 40
0.0
 40
0.0
 40
0.0
 40
0.3764503268402766
 40
0.3764503268402766
 40
0.3764503268402766
 10
25.21352836521631
 20
1570.165954821508
 30
0.0
 41
1.0
 10
25.2201353072768
 20
1569.977845461944
 30
0.0
 41
0.9999985034549736
 10
25.22739308761751
 20
1569.789760089139
 30
0.0
 41
1.0
  0
SPLINE
  5
10A
330
1F
100
AcDbEntity
  8
Table_Miura_9553-71_2D
100
AcDbSpline
210
0.0
220
0.0
230
1.0
 70
    12
 71
     2
 72
     6
 73
     3
 74
     0
 42
0.0000000001
 43
0.0000000001
 40
0.0
 40
0.0
 40
0.0
 40
0.8650636015552052
 40
0.8650636015552052
 40
0.8650636015552052
 10
25.22739308761751
 20
1569.789760089139
 30
0.0
 41
1.0
 10
25.24534137422215
 20
1569.357599376465
 30
0.0
 41
0.9999949169942276
 10
25.26604293615797
 20
1568.925561799502
 30
0.0
 41
0.99999999999989
  0
SPLINE
  5
10B
330
1F
100
AcDbEntity
  8
Table_Miura_9553-71_2D
100
AcDbSpline
210
0.0
220
0.0
230
1.0
 70
    12
 71
     2
 72
     6
 73
     3
 74
     0
 42
0.0000000001
 43
0.0000000001
 40
-0.0174069048050353
 40
-0.0174069048050353
 40
-0.0174069048050353
 40
0.0
 40
0.0
 40
0.0
 10
25.26604293615795
 20
1568.925561799502
 30
0.0
 41
1.0
 10
25.26641793907402
 20
1568.916866428719
 30
0.0
 41
0.9999999593102531
 10
25.26679270834241
 20
1568.908171048048
 30
0.0
 41
1.0
  0
SPLINE
  5
10C
330
1F
100
AcDbEntity
  8
Table_Miura_9553-71_2D
100
AcDbSpline
210
0.0
220
0.0
230
1.0
 70
    12
 71
     2
 72
     6
 73
     3
 74
     0
 42
0.0000000001
 43
0.0000000001
 40
0.0
 40
0.0
 40
0.0
 40
0.0038962172915295
 40
0.0038962172915295
 40
0.0038962172915295
 10
25.26679270834241
 20
1568.908171048048
 30
0.0
 41
1.0
 10
25.26687859863383
 20
1568.906224831868
 30
0.0
 41
0.99999999708734
 10
25.26694124535728
 20
1568.904277615907
 30
0.0
 41
1.0
  0
SPLINE
  5
10D
330
1F
100
AcDbEntity
  8
Table_Miura_9553-71_2D
100
AcDbSpline
210
0.0
220
0.0
230
1.0
 70
     8
 71
     3
 72
    15
 73
    11
 74
     0
 42
0.0000000001
 43
0.0000000001
 40
-44.15779849543482
 40
-44.15779849543482
 40
-44.15779849543482
 40
-44.15779849543482
 40
-41.3966023543671
 40
-38.64978450157578
 40
-32.87822943471982
 40
-21.59382453005134
 40
-10.5998510122942
 40
-5.271537957085918
 40
-2.763377139235542
 40
0.0
 40
0.0
 40
0.0
 40
0.0
 10
25.26694124535728
 20
1568.904277615907
 30
0.0
 10
25.30706354699881
 20
1567.984792261014
 30
0.0
 10
25.41385781071161
 20
1566.15156495614
 30
0.0
 10
25.76279951204682
 20
1562.407481223997
 30
0.0
 10
26.6773759699084
 20
1555.867101891707
 30
0.0
 10
28.81650606464913
 20
1546.746983913345
 30
0.0
 10
32.03016409127243
 20
1538.103686930263
 30
0.0
 10
34.79918472495896
 20
1532.466085328745
 30
0.0
 10
36.52130194839386
 20
1529.380453019438
 30
0.0
 10
37.43877821825057
 20
1527.881212657346
 30
0.0
 10
37.92347419952633
 20
1527.098085967421
 30
0.0
  0
SPLINE
  5
10E
330
1F
100
AcDbEntity
  8
Table_Miura_9553-71_2D
100
AcDbSpline
210
0.0
220
0.0
230
1.0
 70
     8
 71
     5
 72
    12
 73
     6
 74
     0
 42
0.0000000001
 43
0.0000000001
 40
0.0
 40
0.0
 40
0.0
 40
0.0
 40
0.0
 40
0.0
 40
1.0
 40
1.0
 40
1.0
 40
1.0
 40
1.0
 40
1.0
 10
37.92347419952633
 20
1527.098085967421
 30
0.0
 10
37.92680698401212
 20
1527.092701164196
 30
0.0
 10
37.93013992439713
 20
1527.087316457461
 30
0.0
 10
37.9334496657569
 20
1527.081917412199
 30
0.0
 10
37.93677879517176
 20
1527.076530348476
 30
0.0
 10
37.94010803322666
 20
1527.071143351895
 30
0.0
  0
SPLINE
  5
10F
330
1F
100
AcDbEntity
  8
Table_Miura_9553-71_2D
100
AcDbSpline
210
0.0
220
0.0
230
1.0
 70
     8
 71
     3
 72
    18
 73
    14
 74
     0
 42
0.0000000001
 43
0.0000000001
 40
-23.95196467547641
 40
-23.95196467547641
 40
-23.95196467547641
 40
-23.95196467547641
 40
-22.53576743944416
 40
-21.30318735092228
 40
-18.5887311986106
 40
-13.15870189535763
 40
-11.37665901709092
 40
-8.473068222320627
 40
-6.616257952753485
 40
-5.359452356478953
 40
-3.216127340650388
 40
-1.224399517688125
 40
0.0
 40
0.0
 40
0.0
 40
0.0
 10
37.94010803322666
 20
1527.071143351895
 30
0.0
 10
38.18827926697062
 20
1526.66958072231
 30
0.0
 10
38.65381755997108
 20
1525.919328973067
 30
0.0
 10
39.62033660169194
 20
1524.415317430885
 30
0.0
 10
41.36402179471892
 20
1521.820850291967
 30
0.0
 10
43.3193812318926
 20
1519.150112303523
 30
0.0
 10
45.40598563052148
 20
1516.501234677055
 30
0.0
 10
46.79682650045864
 20
1514.821207309381
 30
0.0
 10
48.10190967855064
 20
1513.298161969691
 30
0.0
 10
49.25233393740049
 20
1511.976335406572
 30
0.0
 10
50.43311098951593
 20
1510.621372248539
 30
0.0
 10
51.6013009745969
 20
1509.269728857563
 30
0.0
 10
52.30264007074341
 20
1508.45894368297
 30
0.0
 10
52.56953971338346
 20
1508.150171396294
 30
0.0
  0
SPLINE
  5
110
330
1F
100
AcDbEntity
  8
Table_Miura_9553-71_2D
100
AcDbSpline
210
0.0
220
0.0
230
1.0
 70
     8
 71
     5
 72
    12
 73
     6
 74
     0
 42
0.0000000001
 43
0.0000000001
 40
0.0
 40
0.0
 40
0.0
 40
0.0
 40
0.0
 40
0.0
 40
1.0
 40
1.0
 40
1.0
 40
1.0
 40
1.0
 40
1.0
 10
52.56953971338346
 20
1508.150171396294
 30
0.0
 10
52.57786018574855
 20
1508.140545563705
 30
0.0
 10
52.58618056906865
 20
1508.130919654145
 30
0.0
 10
52.59452821395129
 20
1508.121317331414
 30
0.0
 10
52.60285767701528
 20
1508.111699277636
 30
0.0
 10
52.61118714007928
 20
1508.102081223857
 30
0.0
  0
SPLINE
  5
111
330
1F
100
AcDbEntity
  8
Table_Miura_9553-71_2D
100
AcDbSpline
210
0.0
220
0.0
230
1.0
 70
    24
 71
     2
 72
     6
 73
     3
 74
     0
 42
0.0000000001
 43
0.0000000001
 40
-405.4330160665158
 40
-405.4330160665158
 40
-405.4330160665158
 40
0.0
 40
0.0
 40
0.0
 10
52.61118714007928
 20
1508.102081223857
 30
0.0
 10
185.3200104822761
 20
1354.86283998858
 30
0.0
 10
318.028833824473
 20
1201.623598753304
 30
0.0
  0
LINE
  5
112
330
1F
100
AcDbEntity
  8
Table_Miura_9553-71_2D
100
AcDbLine
 10
318.028833824473
 20
1201.623598753304
 30
0.0
 11
273.3607094540815
 21
1201.624183359906
 31
0.0
  0
SPLINE
  5
113
330
1F
100
AcDbEntity
  8
Table_Miura_9553-71_2D
100
AcDbSpline
210
0.0
220
0.0
230
1.0
 70
    24
 71
     2
 72
     6
 73
     3
 74
     0
 42
0.0000000001
 43
0.0000000001
 40
-382.1184799122443
 40
-382.1184799122443
 40
-382.1184799122443
 40
0.0
 40
0.0
 40
0.0
 10
273.3607094540815
 20
1201.624183359906
 30
0.0
 10
148.2831629510909
 20
1346.051275848523
 30
0.0
 10
23.20561644810035
 20
1490.478368337141
 30
0.0
  0
SPLINE
  5
114
330
1F
100
AcDbEntity
  8
Table_Miura_9553-71_2D
100
AcDbSpline
210
0.0
220
0.0
230
1.0
 70
     8
 71
     5
 72
    12
 73
     6
 74
     0
 42
0.0000000001
 43
0.0000000001
 40
-1.0
 40
-1.0
 40
-1.0
 40
-1.0
 40
-1.0
 40
-1.0
 40
0.0
 40
0.0
 40
0.0
 40
0.0
 40
0.0
 40
0.0
 10
23.20561644810035
 20
1490.478368337141
 30
0.0
 10
23.2027544688793
 20
1490.481673065681
 30
0.0
 10
23.19989248965825
 20
1490.48497779422
 30
0.0
 10
23.19691127504515
 20
1490.48817806815
 30
0.0
 10
23.1940246837606
 20
1490.491461320584
 30
0.0
 10
23.19113802106252
 20
1490.49474451023
 30
0.0
  0
SPLINE
  5
115
330
1F
100
AcDbEntity
  8
Table_Miura_9553-71_2D
100
AcDbSpline
210
0.0
220
0.0
230
1.0
 70
     8
 71
     3
 72
    15
 73
    11
 74
     0
 42
0.0000000001
 43
0.0000000001
 40
-17.32695060162203
 40
-17.32695060162203
 40
-17.32695060162203
 40
-17.32695060162203
 40
-14.68355992114336
 40
-12.30992601284868
 40
-9.953021317401363
 40
-7.666287083349557
 40
-3.639233357410876
 40
-1.776264706140458
 40
-0.8793827298841641
 40
0.0
 40
0.0
 40
0.0
 40
0.0
 10
23.19113802106252
 20
1490.49474451023
 30
0.0
 10
22.60936160558079
 20
1491.156436749145
 30
0.0
 10
21.49833064750177
 20
1492.406762296876
 30
0.0
 10
19.80156591403496
 20
1494.185454734987
 30
0.0
 10
18.13707932739393
 20
1495.829525843576
 30
0.0
 10
16.00707067813376
 20
1497.783373675737
 30
0.0
 10
13.90734830276718
 20
1499.524810326005
 30
0.0
 10
12.05305742176218
 20
1500.823619502504
 30
0.0
 10
11.0328648550288
 20
1501.479457832783
 30
0.0
 10
10.52475833641832
 20
1501.783994474402
 30
0.0
 10
10.27141527052057
 20
1501.931284002918
 30
0.0
  0
SPLINE
  5
116
330
1F
100
AcDbEntity
  8
Table_Miura_9553-71_2D
100
AcDbSpline
210
0.0
220
0.0
230
1.0
 70
    12
 71
     2
 72
     6
 73
     3
 74
     0
 42
0.0000000001
 43
0.0000000001
 40
0.0
 40
0.0
 40
0.0
 40
0.1469556320606097
 40
0.1469556320606097
 40
0.1469556320606097
 10
10.27141527052057
 20
1501.931284002918
 30
0.0
 41
1.0
 10
10.20788848007059
 20
1501.968207760498
 30
0.0
 41
0.9999969449633208
 10
10.14454750318813
 20
1502.005449297636
 30
0.0
 41
1.0
  0
SPLINE
  5
117
330
1F
100
AcDbEntity
  8
Table_Miura_9553-71_2D
100
AcDbSpline
210
0.0
220
0.0
230
1.0
 70
     8
 71
     5
 72
    12
 73
     6
 74
     0
 42
0.0000000001
 43
0.0000000001
 40
-1.0
 40
-1.0
 40
-1.0
 40
-1.0
 40
-1.0
 40
-1.0
 40
0.0
 40
0.0
 40
0.0
 40
0.0
 40
0.0
 40
0.0
 10
10.14454750318813
 20
1502.005449297636
 30
0.0
 10
10.14122222183445
 20
1502.007404407821
 30
0.0
 10
10.13789726186618
 20
1502.009360064623
 30
0.0
 10
10.13457090421283
 20
1502.011313345519
 30
0.0
 10
10.13124444550098
 20
1502.013266452058
 30
0.0
 10
10.12791753586165
 20
1502.015218790187
 30
0.0
  0
SPLINE
  5
118
330
1F
100
AcDbEntity
  8
Table_Miura_9553-71_2D
100
AcDbSpline
210
0.0
220
0.0
230
1.0
 70
    12
 71
     2
 72
     6
 73
     3
 74
     0
 42
0.0000000001
 43
0.0000000001
 40
0.0
 40
0.0
 40
0.0
 40
1.059455396730205
 40
1.059455396730205
 40
1.059455396730205
 10
10.12791753586165
 20
1502.015218790187
 30
0.0
 41
1.0
 10
9.67094916139059
 20
1502.283382605189
 30
0.0
 41
0.9996780901699672
 10
9.200966014632591
 20
1502.52802064129
 30
0.0
 41
1.0
  0
SPLINE
  5
119
330
1F
100
AcDbEntity
  8
Table_Miura_9553-71_2D
100
AcDbSpline
210
0.0
220
0.0
230
1.0
 70
     8
 71
     5
 72
    12
 73
     6
 74
     0
 42
0.0000000001
 43
0.0000000001
 40
0.0
 40
0.0
 40
0.0
 40
0.0
 40
0.0
 40
0.0
 40
1.0
 40
1.0
 40
1.0
 40
1.0
 40
1.0
 40
1.0
 10
9.200966014632591
 20
1502.52802064129
 30
0.0
 10
8.954725930199252
 20
1502.65619479196
 30
0.0
 10
8.706355383150672
 20
1502.780276032387
 30
0.0
 10
8.455808668070254
 20
1502.900550111274
 30
0.0
 10
8.203349334007121
 20
1503.01608237934
 30
0.0
 10
7.949067847789898
 20
1503.12745435898
 30
0.0
  0
SPLINE
  5
11A
330
1F
100
AcDbEntity
  8
Table_Miura_9553-71_2D
100
AcDbSpline
210
0.0
220
0.0
230
1.0
 70
     8
 71
     3
 72
    11
 73
     7
 74
     0
 42
0.0000000001
 43
0.0000000001
 40
0.0
 40
0.0
 40
0.0
 40
0.0
 40
0.9078897846316703
 40
1.83413863357669
 40
3.620644636221537
 40
7.168114128633167
 40
7.168114128633167
 40
7.168114128633167
 40
7.168114128633167
 10
7.949067847789898
 20
1503.12745435898
 30
0.0
 10
7.671874325985607
 20
1503.248861511841
 30
0.0
 10
7.106561871990686
 20
1503.482176814191
 30
0.0
 10
5.970880788519332
 20
1503.891376270167
 30
0.0
 10
3.962954591769936
 20
1504.467217795057
 30
0.0
 10
2.195783405384041
 20
1504.721650774471
 30
0.0
 10
1.014742743830844
 20
1504.781184324586
 30
0.0
  0
SPLINE
  5
11B
330
1F
100
AcDbEntity
  8
Table_Miura_9553-71_2D
100
AcDbSpline
210
0.0
220
0.0
230
1.0
 70
    12
 71
     2
 72
     6
 73
     3
 74
     0
 42
0.0000000001
 43
0.0000000001
 40
-1.522042370303901
 40
-1.522042370303901
 40
-1.522042370303901
 40
0.0
 40
0.0
 40
0.0
 10
1.014742743830844
 20
1504.781184324586
 30
0.0
 41
1.0
 10
0.0632338418574416
 20
1504.826685678359
 30
0.0
 41
0.7239225688158023
 10
0.0631011068037031
 20
1505.779281915671
 30
0.0
 41
0.9999999691280612
  0
SPLINE
  5
11C
330
1F
100
AcDbEntity
  8
Table_Miura_9553-71_2D
100
AcDbSpline
210
0.0
220
0.0
230
1.0
 70
    12
 71
     2
 72
     6
 73
     3
 74
     0
 42
0.0000000001
 43
0.0000000001
 40
0.0
 40
0.0
 40
0.0
 40
1.522042370303901
 40
1.522042370303901
 40
1.522042370303901
 10
0.0631011068037031
 20
1505.779281915671
 30
0.0
 41
0.9999999691280612
 10
0.0629683717507008
 20
1504.826685678359
 30
0.0
 41
0.7239225688158023
 10
-0.8885405302232024
 20
1504.781184324586
 30
0.0
 41
1.0
  0
SPLINE
  5
11D
330
1F
100
AcDbEntity
  8
Table_Miura_9553-71_2D
100
AcDbSpline
210
0.0
220
0.0
230
1.0
 70
     8
 71
     3
 72
    11
 73
     7
 74
     0
 42
0.0000000001
 43
0.0000000001
 40
-7.168114128633167
 40
-7.168114128633167
 40
-7.168114128633167
 40
-7.168114128633167
 40
-3.620644636221537
 40
-1.83413863357669
 40
-0.9078897846316703
 40
0.0
 40
0.0
 40
0.0
 40
0.0
 10
-0.8885405302232024
 20
1504.781184324586
 30
0.0
 10
-2.069581191776399
 20
1504.721650774471
 30
0.0
 10
-3.836752378162294
 20
1504.467217795057
 30
0.0
 10
-5.844678574911688
 20
1503.891376270167
 30
0.0
 10
-6.980359658383043
 20
1503.482176814191
 30
0.0
 10
-7.545672112377964
 20
1503.248861511841
 30
0.0
 10
-7.822865634182255
 20
1503.12745435898
 30
0.0
  0
SPLINE
  5
11E
330
1F
100
AcDbEntity
  8
Table_Miura_9553-71_2D
100
AcDbSpline
210
0.0
220
0.0
230
1.0
 70
     8
 71
     5
 72
    12
 73
     6
 74
     0
 42
0.0000000001
 43
0.0000000001
 40
-1.0
 40
-1.0
 40
-1.0
 40
-1.0
 40
-1.0
 40
-1.0
 40
0.0
 40
0.0
 40
0.0
 40
0.0
 40
0.0
 40
0.0
 10
-7.822865634182255
 20
1503.12745435898
 30
0.0
 10
-8.07714712039948
 20
1503.01608237934
 30
0.0
 10
-8.329606454462613
 20
1502.900550111274
 30
0.0
 10
-8.580153169543031
 20
1502.780276032387
 30
0.0
 10
-8.828523716591613
 20
1502.65619479196
 30
0.0
 10
-9.07476380102495
 20
1502.52802064129
 30
0.0
  0
SPLINE
  5
11F
330
1F
100
AcDbEntity
  8
Table_Miura_9553-71_2D
100
AcDbSpline
210
0.0
220
0.0
230
1.0
 70
    12
 71
     2
 72
     6
 73
     3
 74
     0
 42
0.0000000001
 43
0.0000000001
 40
-1.059455396730205
 40
-1.059455396730205
 40
-1.059455396730205
 40
0.0
 40
0.0
 40
0.0
 10
-9.07476380102495
 20
1502.52802064129
 30
0.0
 41
1.0
 10
-9.544746947783329
 20
1502.283382605189
 30
0.0
 41
0.9996780901699672
 10
-10.00171532225401
 20
1502.015218790187
 30
0.0
 41
1.0
  0
SPLINE
  5
120
330
1F
100
AcDbEntity
  8
Table_Miura_9553-71_2D
100
AcDbSpline
210
0.0
220
0.0
230
1.0
 70
     8
 71
     5
 72
    12
 73
     6
 74
     0
 42
0.0000000001
 43
0.0000000001
 40
0.0
 40
0.0
 40
0.0
 40
0.0
 40
0.0
 40
0.0
 40
1.0
 40
1.0
 40
1.0
 40
1.0
 40
1.0
 40
1.0
 10
-10.00171532225401
 20
1502.015218790187
 30
0.0
 10
-10.00504223189333
 20
1502.013266452058
 30
0.0
 10
-10.00836869060519
 20
1502.011313345519
 30
0.0
 10
-10.01169504825854
 20
1502.009360064623
 30
0.0
 10
-10.01502000822681
 20
1502.007404407821
 30
0.0
 10
-10.01834528958049
 20
1502.005449297636
 30
0.0
  0
SPLINE
  5
121
330
1F
100
AcDbEntity
  8
Table_Miura_9553-71_2D
100
AcDbSpline
210
0.0
220
0.0
230
1.0
 70
    12
 71
     2
 72
     6
 73
     3
 74
     0
 42
0.0000000001
 43
0.0000000001
 40
-0.1469556320606097
 40
-0.1469556320606097
 40
-0.1469556320606097
 40
0.0
 40
0.0
 40
0.0
 10
-10.01834528958049
 20
1502.005449297636
 30
0.0
 41
1.0
 10
-10.08168626646268
 20
1501.968207760498
 30
0.0
 41
0.9999969449633208
 10
-10.14521305691293
 20
1501.931284002918
 30
0.0
 41
1.0
  0
SPLINE
  5
122
330
1F
100
AcDbEntity
  8
Table_Miura_9553-71_2D
100
AcDbSpline
210
0.0
220
0.0
230
1.0
 70
     8
 71
     3
 72
    15
 73
    11
 74
     0
 42
0.0000000001
 43
0.0000000001
 40
0.0
 40
0.0
 40
0.0
 40
0.0
 40
0.8793827298841641
 40
1.776264706140458
 40
3.639233357410876
 40
7.666287083349557
 40
9.953021317401363
 40
12.30992601284868
 40
14.68355992114336
 40
17.32695060162203
 40
17.32695060162203
 40
17.32695060162203
 40
17.32695060162203
 10
-10.14521305691293
 20
1501.931284002918
 30
0.0
 10
-10.39855612281068
 20
1501.783994474402
 30
0.0
 10
-10.90666264142116
 20
1501.479457832783
 30
0.0
 10
-11.92685520815454
 20
1500.823619502504
 30
0.0
 10
-13.78114608915954
 20
1499.524810326005
 30
0.0
 10
-15.88086846452612
 20
1497.783373675737
 30
0.0
 10
-18.01087711378629
 20
1495.829525843576
 30
0.0
 10
-19.67536370042732
 20
1494.185454734987
 30
0.0
 10
-21.37212843389413
 20
1492.406762296876
 30
0.0
 10
-22.48315939197315
 20
1491.156436749145
 30
0.0
 10
-23.06493580745488
 20
1490.49474451023
 30
0.0
  0
SPLINE
  5
123
330
1F
100
AcDbEntity
  8
Table_Miura_9553-71_2D
100
AcDbSpline
210
0.0
220
0.0
230
1.0
 70
     8
 71
     5
 72
    12
 73
     6
 74
     0
 42
0.0000000001
 43
0.0000000001
 40
0.0
 40
0.0
 40
0.0
 40
0.0
 40
0.0
 40
0.0
 40
1.0
 40
1.0
 40
1.0
 40
1.0
 40
1.0
 40
1.0
 10
-23.06493580745488
 20
1490.49474451023
 30
0.0
 10
-23.06782247015295
 20
1490.491461320584
 30
0.0
 10
-23.0707090614375
 20
1490.48817806815
 30
0.0
 10
-23.07369027605061
 20
1490.48497779422
 30
0.0
 10
-23.07655225527166
 20
1490.481673065681
 30
0.0
 10
-23.07941423449271
 20
1490.478368337141
 30
0.0
  0
SPLINE
  5
124
330
1F
100
AcDbEntity
  8
Table_Miura_9553-71_2D
100
AcDbSpline
210
0.0
220
0.0
230
1.0
 70
    24
 71
     2
 72
     6
 73
     3
 74
     0
 42
0.0000000001
 43
0.0000000001
 40
0.0
 40
0.0
 40
0.0
 40
382.1184799122443
 40
382.1184799122443
 40
382.1184799122443
 10
-23.07941423449271
 20
1490.478368337141
 30
0.0
 10
-148.1569607374833
 20
1346.051275848523
 30
0.0
 10
-273.2345072404739
 20
1201.624183359906
 30
0.0
  0
LINE
  5
125
330
1F
100
AcDbEntity
  8
Table_Miura_9553-71_2D
100
AcDbLine
 10
-273.2345072404739
 20
1201.624183359906
 30
0.0
 11
-317.9026316108653
 21
1201.623598753304
 31
0.0
  0
SPLINE
  5
126
330
1F
100
AcDbEntity
  8
Table_Miura_9553-71_2D
100
AcDbSpline
210
0.0
220
0.0
230
1.0
 70
    24
 71
     2
 72
     6
 73
     3
 74
     0
 42
0.0000000001
 43
0.0000000001
 40
0.0
 40
0.0
 40
0.0
 40
405.4330160665158
 40
405.4330160665158
 40
405.4330160665158
 10
-317.9026316108653
 20
1201.623598753304
 30
0.0
 10
-185.1938082686685
 20
1354.86283998858
 30
0.0
 10
-52.48498492647165
 20
1508.102081223857
 30
0.0
  0
SPLINE
  5
127
330
1F
100
AcDbEntity
  8
Table_Miura_9553-71_2D
100
AcDbSpline
210
0.0
220
0.0
230
1.0
 70
     8
 71
     5
 72
    12
 73
     6
 74
     0
 42
0.0000000001
 43
0.0000000001
 40
-1.0
 40
-1.0
 40
-1.0
 40
-1.0
 40
-1.0
 40
-1.0
 40
0.0
 40
0.0
 40
0.0
 40
0.0
 40
0.0
 40
0.0
 10
-52.48498492647165
 20
1508.102081223857
 30
0.0
 10
-52.47665546340765
 20
1508.111699277636
 30
0.0
 10
-52.46832600034363
 20
1508.121317331414
 30
0.0
 10
-52.459978355461
 20
1508.130919654145
 30
0.0
 10
-52.4516579721409
 20
1508.140545563705
 30
0.0
 10
-52.44333749977583
 20
1508.150171396294
 30
0.0
  0
SPLINE
  5
128
330
1F
100
AcDbEntity
  8
Table_Miura_9553-71_2D
100
AcDbSpline
210
0.0
220
0.0
230
1.0
 70
     8
 71
     3
 72
    18
 73
    14
 74
     0
 42
0.0000000001
 43
0.0000000001
 40
0.0
 40
0.0
 40
0.0
 40
0.0
 40
1.224399517688125
 40
3.216127340650388
 40
5.359452356478953
 40
6.616257952753485
 40
8.473068222320627
 40
11.37665901709092
 40
13.15870189535763
 40
18.5887311986106
 40
21.30318735092228
 40
22.53576743944416
 40
23.95196467547641
 40
23.95196467547641
 40
23.95196467547641
 40
23.95196467547641
 10
-52.44333749977583
 20
1508.150171396294
 30
0.0
 10
-52.17643785713577
 20
1508.45894368297
 30
0.0
 10
-51.47509876098926
 20
1509.269728857563
 30
0.0
 10
-50.30690877590829
 20
1510.621372248539
 30
0.0
 10
-49.12613172379284
 20
1511.976335406572
 30
0.0
 10
-47.97570746494299
 20
1513.298161969691
 30
0.0
 10
-46.67062428685099
 20
1514.821207309381
 30
0.0
 10
-45.27978341691384
 20
1516.501234677055
 30
0.0
 10
-43.19317901828496
 20
1519.150112303523
 30
0.0
 10
-41.23781958111127
 20
1521.820850291967
 30
0.0
 10
-39.4941343880843
 20
1524.415317430885
 30
0.0
 10
-38.52761534636344
 20
1525.919328973067
 30
0.0
 10
-38.06207705336298
 20
1526.66958072231
 30
0.0
 10
-37.81390581961903
 20
1527.071143351895
 30
0.0
  0
SPLINE
  5
129
330
1F
100
AcDbEntity
  8
Table_Miura_9553-71_2D
100
AcDbSpline
210
0.0
220
0.0
230
1.0
 70
     8
 71
     5
 72
    12
 73
     6
 74
     0
 42
0.0000000001
 43
0.0000000001
 40
-1.0
 40
-1.0
 40
-1.0
 40
-1.0
 40
-1.0
 40
-1.0
 40
0.0
 40
0.0
 40
0.0
 40
0.0
 40
0.0
 40
0.0
 10
-37.81390581961903
 20
1527.071143351895
 30
0.0
 10
-37.81057658156412
 20
1527.076530348476
 30
0.0
 10
-37.80724745214925
 20
1527.081917412199
 30
0.0
 10
-37.8039377107895
 20
1527.087316457461
 30
0.0
 10
-37.80060477040448
 20
1527.092701164196
 30
0.0
 10
-37.79727198591869
 20
1527.098085967421
 30
0.0
  0
SPLINE
  5
12A
330
1F
100
AcDbEntity
  8
Table_Miura_9553-71_2D
100
AcDbSpline
210
0.0
220
0.0
230
1.0
 70
     8
 71
     3
 72
    15
 73
    11
 74
     0
 42
0.0000000001
 43
0.0000000001
 40
0.0
 40
0.0
 40
0.0
 40
0.0
 40
2.763377139235542
 40
5.271537957085918
 40
10.5998510122942
 40
21.59382453005134
 40
32.87822943471982
 40
38.64978450157578
 40
41.3966023543671
 40
44.15779849543482
 40
44.15779849543482
 40
44.15779849543482
 40
44.15779849543482
 10
-37.79727198591869
 20
1527.098085967421
 30
0.0
 10
-37.31257600464293
 20
1527.881212657346
 30
0.0
 10
-36.39509973478622
 20
1529.380453019438
 30
0.0
 10
-34.67298251135131
 20
1532.466085328745
 30
0.0
 10
-31.90396187766479
 20
1538.103686930263
 30
0.0
 10
-28.69030385104148
 20
1546.746983913345
 30
0.0
 10
-26.55117375630076
 20
1555.867101891707
 30
0.0
 10
-25.63659729843918
 20
1562.407481223997
 30
0.0
 10
-25.28765559710397
 20
1566.15156495614
 30
0.0
 10
-25.18086133339117
 20
1567.984792261014
 30
0.0
 10
-25.14073903174964
 20
1568.904277615907
 30
0.0
  0
SPLINE
  5
12B
330
1F
100
AcDbEntity
  8
Table_Miura_9553-71_2D
100
AcDbSpline
210
0.0
220
0.0
230
1.0
 70
    12
 71
     2
 72
     6
 73
     3
 74
     0
 42
0.0000000001
 43
0.0000000001
 40
-0.0038962172915295
 40
-0.0038962172915295
 40
-0.0038962172915295
 40
0.0
 40
0.0
 40
0.0
 10
-25.14073903174964
 20
1568.904277615907
 30
0.0
 41
1.0
 10
-25.14067638502631
 20
1568.906224831868
 30
0.0
 41
0.99999999708734
 10
-25.14059049473477
 20
1568.908171048048
 30
0.0
 41
1.0
  0
SPLINE
  5
12C
330
1F
100
AcDbEntity
  8
Table_Miura_9553-71_2D
100
AcDbSpline
210
0.0
220
0.0
230
1.0
 70
    12
 71
     2
 72
     6
 73
     3
 74
     0
 42
0.0000000001
 43
0.0000000001
 40
0.0
 40
0.0
 40
0.0
 40
0.0174069048050353
 40
0.0174069048050353
 40
0.0174069048050353
 10
-25.14059049473477
 20
1568.908171048048
 30
0.0
 41
1.0
 10
-25.1402157254668
 20
1568.916866428719
 30
0.0
 41
0.9999999593102531
 10
-25.13984072255031
 20
1568.925561799502
 30
0.0
 41
1.0
  0
SPLINE
  5
12D
330
1F
100
AcDbEntity
  8
Table_Miura_9553-71_2D
100
AcDbSpline
210
0.0
220
0.0
230
1.0
 70
    12
 71
     2
 72
     6
 73
     3
 74
     0
 42
0.0000000001
 43
0.0000000001
 40
-0.8650636015552052
 40
-0.8650636015552052
 40
-0.8650636015552052
 40
0.0
 40
0.0
 40
0.0
 10
-25.13984072255038
 20
1568.925561799502
 30
0.0
 41
0.99999999999989
 10
-25.11913916061467
 20
1569.357599376465
 30
0.0
 41
0.9999949169942276
 10
-25.10119087400987
 20
1569.789760089139
 30
0.0
 41
1.0
  0
SPLINE
  5
12E
330
1F
100
AcDbEntity
  8
Table_Miura_9553-71_2D
100
AcDbSpline
210
0.0
220
0.0
230
1.0
 70
    12
 71
     2
 72
     6
 73
     3
 74
     0
 42
0.0000000001
 43
0.0000000001
 40
-0.3764503268402766
 40
-0.3764503268402766
 40
-0.3764503268402766
 40
0.0
 40
0.0
 40
0.0
 10
-25.10119087400987
 20
1569.789760089139
 30
0.0
 41
1.0
 10
-25.09393309366871
 20
1569.977845461944
 30
0.0
 41
0.9999985034549736
 10
-25.08732615160867
 20
1570.165954821508
 30
0.0
 41
1.0
  0
SPLINE
  5
12F
330
1F
100
AcDbEntity
  8
Table_Miura_9553-71_2D
100
AcDbSpline
210
0.0
220
0.0
230
1.0
 70
     8
 71
     5
 72
    12
 73
     6
 74
     0
 42
0.0000000001
 43
0.0000000001
 40
-1.0
 40
-1.0
 40
-1.0
 40
-1.0
 40
-1.0
 40
-1.0
 40
0.0
 40
0.0
 40
0.0
 40
0.0
 40
0.0
 40
0.0
 10
-25.08732615160867
 20
1570.165954821508
 30
0.0
 10
-25.08203794221997
 20
1570.316517921998
 30
0.0
 10
-25.07701034643802
 20
1570.467090175988
 30
0.0
 10
-25.07241547021719
 20
1570.617678163295
 30
0.0
 10
-25.0669205325236
 20
1570.768234035577
 30
0.0
 10
-25.06119634541452
 20
1570.918781191212
 30
0.0
  0
SPLINE
  5
130
330
1F
100
AcDbEntity
  8
Table_Miura_9553-71_2D
100
AcDbSpline
210
0.0
220
0.0
230
1.0
 70
     8
 71
     3
 72
    15
 73
    11
 74
     0
 42
0.0000000001
 43
0.0000000001
 40
0.0
 40
0.0
 40
0.0
 40
0.0
 40
0.9361505302432512
 40
1.592389293923228
 40
2.107271700881923
 40
2.520270126564128
 40
2.899529664530076
 40
3.247808135525446
 40
3.588551735127003
 40
3.919177605417825
 40
3.919177605417825
 40
3.919177605417825
 40
3.919177605417825
 10
-25.06119634541452
 20
1570.918781191212
 30
0.0
 10
-25.04934017996008
 20
1571.230600485721
 30
0.0
 10
-25.02716320124788
 20
1571.760985292166
 30
0.0
 10
-24.97092064489848
 20
1572.461353402819
 30
0.0
 10
-24.8924089968638
 20
1572.984034499224
 30
0.0
 10
-24.77835832556926
 20
1573.405640170999
 30
0.0
 10
-24.61454327350354
 20
1573.751102191037
 30
0.0
 10
-24.38862988798852
 20
1574.030100269508
 30
0.0
 10
-24.11014314786704
 20
1574.23052724228
 30
0.0
 10
-23.89750996787158
 20
1574.30707650062
 30
0.0
 10
-23.78963029695266
 20
1574.329652031157
 30
0.0
  0
LINE
  5
131
330
1F
100
AcDbEntity
  8
Table_Miura_9553-71_2D
100
AcDbLine
 10
-23.78963029695266
 20
1574.329652031157
 30
0.0
 11
-21.58788924011484
 21
1574.329559687163
 31
0.0
  0
SPLINE
  5
132
330
1F
100
AcDbEntity
  8
Table_Miura_9553-71_2D
100
AcDbSpline
210
0.0
220
0.0
230
1.0
 70
     8
 71
     3
 72
    18
 73
    14
 74
     0
 42
0.0000000001
 43
0.0000000001
 40
-11.35744832993483
 40
-11.35744832993483
 40
-11.35744832993483
 40
-11.35744832993483
 40
-7.387935346890758
 40
-6.716881895257425
 40
-6.413782533532998
 40
-6.129926738348678
 40
-5.827549416049516
 40
-5.506991273313296
 40
-4.870777299577193
 40
-3.713958932632885
 40
-2.530514856758515
 40
-1.285072805565842
 40
0.0
 40
0.0
 40
0.0
 40
0.0
 10
-21.58788924011484
 20
1574.329559687163
 30
0.0
 10
-20.26470910346294
 20
1574.329448695525
 30
0.0
 10
-18.71787803022713
 20
1574.329753711556
 30
0.0
 10
-17.0699630205651
 20
1574.329405245282
 30
0.0
 10
-16.65067166681516
 20
1574.329974698963
 30
0.0
 10
-16.35407303389335
 20
1574.330307635043
 30
0.0
 10
-16.05290405794009
 20
1574.299174753915
 30
0.0
 10
-15.64121589671291
 20
1574.215682570289
 30
0.0
 10
-14.97485695766105
 20
1573.976834768926
 30
0.0
 10
-14.13923408960242
 20
1573.423360875676
 30
0.0
 10
-13.34576914821779
 20
1572.517039658991
 30
0.0
 10
-12.77009376980337
 20
1571.411710164242
 30
0.0
 10
-12.55821110049116
 20
1570.589646144827
 30
0.0
 10
-12.49743006100622
 20
1570.165669326354
 30
0.0
  0
SPLINE
  5
133
330
1F
100
AcDbEntity
  8
Table_Miura_9553-71_2D
100
AcDbSpline
210
0.0
220
0.0
230
1.0
 70
    12
 71
     3
 72
    10
 73
     6
 74
     0
 42
0.0000000001
 43
0.0000000001
 40
-1.41140165102152
 40
-1.41140165102152
 40
-1.41140165102152
 40
-1.41140165102152
 40
-0.7080503722075561
 40
-0.7080503722075561
 40
-0.0049548029583888
 40
-0.0049548029583888
 40
-0.0049548029583888
 40
-0.0049548029583888
 10
-12.49743006100622
 20
1570.165669326354
 30
0.0
 41
1.0
 10
-12.46383617530925
 20
1569.931807588383
 30
0.0
 41
1.0
 10
-12.35988412414705
 20
1569.719822971764
 30
0.0
 41
1.0
 10
-12.04449673913465
 20
1569.413277682937
 30
0.0
 41
1.0
 10
-11.84409484993709
 20
1569.329554225063
 30
0.0
 41
1.0
 10
-11.63466183950064
 20
1569.329559593053
 30
0.0
 41
1.0
  0
SPLINE
  5
134
330
1F
100
AcDbEntity
  8
Table_Miura_9553-71_2D
100
AcDbSpline
210
0.0
220
0.0
230
1.0
 70
    12
 71
     2
 72
     6
 73
     3
 74
     0
 42
0.0000000001
 43
0.0000000001
 40
0.0
 40
0.0
 40
0.0
 40
11.69797561871451
 40
11.69797561871451
 40
11.69797561871451
 10
-11.63466183950064
 20
1569.329559593053
 30
0.0
 41
1.0
 10
-5.785780366347955
 20
1569.329559560044
 30
0.0
 41
1.0
 10
0.0631011068038211
 20
1569.329559586947
 30
0.0
 41
1.0
  0
SPLINE
  5
135
330
1F
100
AcDbEntity
  8
Table_Miura_9553-71_2D
100
AcDbSpline
210
0.0
220
0.0
230
1.0
 70
     8
 71
     3
 72
    13
 73
     9
 74
     0
 42
0.0000000001
 43
0.0000000001
 40
0.0
 40
0.0
 40
0.0
 40
0.0
 40
0.0842084935809858
 40
0.1523207872208179
 40
0.275918593398183
 40
0.3976132335562294
 40
0.4611173083935368
 40
0.5436834943217633
 40
0.5436834943217633
 40
0.5436834943217633
 40
0.5436834943217633
 10
-273.7309410201021
 20
1201.624545951966
 30
0.0
 10
-273.7029696709585
 20
1201.624514051903
 30
0.0
 10
-273.6518062449847
 20
1201.621183327633
 30
0.0
 10
-273.5631752777032
 20
1201.596008283911
 30
0.0
 10
-273.4811220611488
 20
1201.520433781269
 30
0.0
 10
-273.473180379028
 20
1201.410463528133
 30
0.0
 10
-273.5126158311866
 20
1201.329321300722
 30
0.0
 10
-273.5437665721471
 20
1201.291710156924
 30
0.0
 10
-273.5620187537385
 20
1201.271073564571
 30
0.0
  0
SPLINE
  5
136
330
1F
100
AcDbEntity
  8
Table_Miura_9553-71_2D
100
AcDbSpline
210
0.0
220
0.0
230
1.0
 70
    24
 71
     2
 72
     6
 73
     3
 74
     0
 42
0.0000000001
 43
0.0000000001
 40
0.0
 40
0.0
 40
0.0
 40
0.5244136134753632
 40
0.5244136134753632
 40
0.5244136134753632
 10
-273.5620187537385
 20
1201.271073564571
 30
0.0
 10
-273.7337901880798
 20
1201.072729090719
 30
0.0
 10
-273.9055616224211
 20
1200.874384616868
 30
0.0
  0
SPLINE
  5
137
330
1F
100
AcDbEntity
  8
Table_Miura_9553-71_2D
100
AcDbSpline
210
0.0
220
0.0
230
1.0
 70
     8
 71
     3
 72
    12
 73
     8
 74
     0
 42
0.0000000001
 43
0.0000000001
 40
0.0
 40
0.0
 40
0.0
 40
0.0
 40
0.215147148445352
 40
0.4344126759933203
 40
1.014845999299492
 40
1.738325432821743
 40
2.240259627195611
 40
2.240259627195611
 40
2.240259627195611
 40
2.240259627195611
 10
-273.9055616224211
 20
1200.874384616868
 30
0.0
 10
-273.9526124800092
 20
1200.819823148697
 30
0.0
 10
-274.0484293237793
 20
1200.711194344678
 30
0.0
 10
-274.2847614127856
 20
1200.469035070052
 30
0.0
 10
-274.656766970537
 20
1200.123284846937
 30
0.0
 10
-275.11056855737
 20
1199.727779570024
 30
0.0
 10
-275.4287805389001
 20
1199.471378043983
 30
0.0
 10
-275.565582985502
 20
1199.374500639892
 30
0.0
  0
SPLINE
  5
138
330
1F
100
AcDbEntity
  8
Table_Miura_9553-71_2D
100
AcDbSpline
210
0.0
220
0.0
230
1.0
 70
     8
 71
     3
 72
    11
 73
     7
 74
     0
 42
0.0000000001
 43
0.0000000001
 40
0.0
 40
0.0
 40
0.0
 40
0.0
 40
2.849025153143938
 40
5.681848556468799
 40
11.31563454753918
 40
22.64754464670963
 40
22.64754464670963
 40
22.64754464670963
 40
22.64754464670963
 10
-275.565582985502
 20
1199.374500639892
 30
0.0
 10
-276.3379112244263
 20
1198.821593611434
 30
0.0
 10
-277.9205312143756
 20
1197.778282463923
 30
0.0
 10
-281.2222592138084
 20
1195.949428046434
 30
0.0
 10
-287.3439007703106
 20
1193.43030451879
 30
0.0
 10
-292.9978996402677
 20
1192.537055716379
 30
0.0
 10
-296.7753554865619
 20
1192.537390963457
 30
0.0
  0
SPLINE
  5
139
330
1F
100
AcDbEntity
  8
Table_Miura_9553-71_2D
100
AcDbSpline
210
0.0
220
0.0
230
1.0
 70
     8
 71
     5
 72
    12
 73
     6
 74
     0
 42
0.0000000001
 43
0.0000000001
 40
-1.0
 40
-1.0
 40
-1.0
 40
-1.0
 40
-1.0
 40
-1.0
 40
0.0
 40
0.0
 40
0.0
 40
0.0
 40
0.0
 40
0.0
 10
-296.7753554865619
 20
1192.537390963457
 30
0.0
 10
-296.8442869401921
 20
1192.537397081085
 30
0.0
 10
-296.9132183791205
 20
1192.537568852974
 30
0.0
 10
-296.9821505575033
 20
1192.537897797503
 30
0.0
 10
-297.0510804605535
 20
1192.538389090304
 30
0.0
 10
-297.1200087803724
 20
1192.539046406012
 30
0.0
  0
SPLINE
  5
13A
330
1F
100
AcDbEntity
  8
Table_Miura_9553-71_2D
100
AcDbSpline
210
0.0
220
0.0
230
1.0
 70
     8
 71
     3
 72
    12
 73
     8
 74
     0
 42
0.0000000001
 43
0.0000000001
 40
0.0
 40
0.0
 40
0.0
 40
0.0
 40
2.765242495116511
 40
5.467131183712466
 40
11.12386283924205
 40
16.6939552205985
 40
22.3034199774177
 40
22.3034199774177
 40
22.3034199774177
 40
22.3034199774177
 10
-297.1200087803724
 20
1192.539046406012
 30
0.0
 10
-298.041720568706
 20
1192.547836053556
 30
0.0
 10
-299.8633043086808
 20
1192.635645551196
 30
0.0
 10
-303.5457241859883
 20
1193.09113691417
 30
0.0
 10
-308.0712529757417
 20
1194.190424615094
 30
0.0
 10
-313.2705553289404
 20
1196.346228390198
 30
0.0
 10
-316.4649526238934
 20
1198.286305807732
 30
0.0
 10
-317.9855163158488
 20
1199.374578723261
 30
0.0
  0
SPLINE
  5
13B
330
1F
100
AcDbEntity
  8
Table_Miura_9553-71_2D
100
AcDbSpline
210
0.0
220
0.0
230
1.0
 70
     8
 71
     3
 72
    16
 73
    12
 74
     0
 42
0.0000000001
 43
0.0000000001
 40
0.0
 40
0.0
 40
0.0
 40
0.0
 40
0.1450445684408275
 40
0.2674563255525638
 40
0.5165020686838146
 40
0.7647651081847263
 40
0.9971024939488223
 40
1.19489142016583
 40
1.37708050099132
 40
1.556352254818321
 40
1.789706299665248
 40
1.789706299665248
 40
1.789706299665248
 40
1.789706299665248
 10
-317.9855163158488
 20
1199.374578723261
 30
0.0
 10
-318.0249616236867
 20
1199.402720362809
 30
0.0
 10
-318.0971061589404
 20
1199.455179335003
 30
0.0
 10
-318.2277074320997
 20
1199.567626404724
 30
0.0
 10
-318.3660973916637
 20
1199.721979734786
 30
0.0
 10
-318.4959576238695
 20
1199.928739789613
 30
0.0
 10
-318.5780970679076
 20
1200.140788170973
 30
0.0
 10
-318.6050816774793
 20
1200.344872978863
 30
0.0
 10
-318.5757128764787
 20
1200.531193499599
 30
0.0
 10
-318.4871856697288
 20
1200.71074176842
 30
0.0
 10
-318.397434066969
 20
1200.815864090906
 30
0.0
 10
-318.3464012111451
 20
1200.874577364289
 30
0.0
  0
SPLINE
  5
13C
330
1F
100
AcDbEntity
  8
Table_Miura_9553-71_2D
100
AcDbSpline
210
0.0
220
0.0
230
1.0
 70
    24
 71
     2
 72
     6
 73
     3
 74
     0
 42
0.0000000001
 43
0.0000000001
 40
0.0
 40
0.0
 40
0.0
 40
0.5244495011189884
 40
0.5244495011189884
 40
0.5244495011189884
 10
-318.3464012111451
 20
1200.874577364289
 30
0.0
 10
-318.1746447581615
 20
1201.072905383062
 30
0.0
 10
-318.0028883051779
 20
1201.271233401834
 30
0.0
  0
SPLINE
  5
13D
330
1F
100
AcDbEntity
  8
Table_Miura_9553-71_2D
100
AcDbSpline
210
0.0
220
0.0
230
1.0
 70
     8
 71
     3
 72
    12
 73
     8
 74
     0
 42
0.0000000001
 43
0.0000000001
 40
0.0
 40
0.0
 40
0.0
 40
0.0
 40
0.0890023797843848
 40
0.1797960093845599
 40
0.411193526615116
 40
0.6556287843923316
 40
0.8529811660911645
 40
0.8529811660911645
 40
0.8529811660911645
 40
0.8529811660911645
 10
-318.0028883051779
 20
1201.271233401834
 30
0.0
 10
-317.9835763431872
 20
1201.293961206179
 30
0.0
 10
-317.9427826663347
 20
1201.338089267453
 30
0.0
 10
-317.8341060244208
 20
1201.422341782645
 30
0.0
 10
-317.6675848438652
 20
1201.512598966067
 30
0.0
 10
-317.4580781955116
 20
1201.594399176126
 30
0.0
 10
-317.3125592115809
 20
1201.622248030025
 30
0.0
 10
-317.2466693281874
 20
1201.62403185447
 30
0.0
  0
SPLINE
  5
13E
330
1F
100
AcDbEntity
  8
Table_Miura_9553-71_2D
100
AcDbSpline
210
0.0
220
0.0
230
1.0
 70
    24
 71
     2
 72
     6
 73
     3
 74
     0
 42
0.0000000001
 43
0.0000000001
 40
0.0
 40
0.0
 40
0.0
 40
0.0064177164707695
 40
0.0064177164707695
 40
0.0064177164707695
 10
283.0665179286133
 20
-192.4461548493711
 30
0.0
 10
283.0637497874213
 20
-192.4445318381217
 30
0.0
 10
283.0609816462293
 20
-192.4429088268723
 30
0.0
  0
SPLINE
  5
13F
330
1F
100
AcDbEntity
  8
Table_Miura_9553-71_2D
100
AcDbSpline
210
0.0
220
0.0
230
1.0
 70
     8
 71
     3
 72
    21
 73
    17
 74
     0
 42
0.0000000001
 43
0.0000000001
 40
0.0
 40
0.0
 40
0.0
 40
0.0
 40
0.6474029094493622
 40
1.239961029460211
 40
2.476453098401548
 40
4.946873970820978
 40
9.81187462871942
 40
14.60310952278444
 40
19.26181656972225
 40
23.71952366727886
 40
28.04749662437723
 40
30.1563342873369
 40
32.34208490377009
 40
34.43000439321898
 40
35.44727884989575
 40
36.53847946972826
 40
36.53847946972826
 40
36.53847946972826
 40
36.53847946972826
 10
314.0920039379071
 20
-181.3468765236796
 30
0.0
 10
313.9833747923012
 20
-181.533337962098
 30
0.0
 10
313.7740366529133
 20
-181.8897592484489
 30
0.0
 10
313.3382419798618
 20
-182.5908954632085
 30
0.0
 10
312.5453192995428
 20
-183.7850566833573
 30
0.0
 10
310.8169979320063
 20
-186.0635784804133
 30
0.0
 10
307.9776351089504
 20
-188.9609432336235
 30
0.0
 10
304.087902061442
 20
-191.7569923460842
 30
0.0
 10
299.8746191996762
 20
-193.7399869925092
 30
0.0
 10
295.5088321523917
 20
-194.8439092327275
 30
0.0
 10
291.8600497412308
 20
-194.9996764552713
 30
0.0
 10
289.0025537241308
 20
-194.6496318303305
 30
0.0
 10
286.9290666119896
 20
-194.1576719484749
 30
0.0
 10
285.2707322675105
 20
-193.5490039580934
 30
0.0
 10
284.0003326397336
 20
-192.9621052943803
 30
0.0
 10
283.3839350887192
 20
-192.6236590102625
 30
0.0
 10
283.0665179286143
 20
-192.4461548493713
 30
0.0
  0
SPLINE
  5
140
330
1F
100
AcDbEntity
  8
Table_Miura_9553-71_2D
100
AcDbSpline
210
0.0
220
0.0
230
1.0
 70
    24
 71
     2
 72
     6
 73
     3
 74
     0
 42
0.0000000001
 43
0.0000000001
 40
0.0
 40
0.0
 40
0.0
 40
0.0049999976354462
 40
0.0049999976354462
 40
0.0049999976354462
 10
314.0945029797867
 20
-181.3425458463608
 30
0.0
 10
314.0932534588469
 20
-181.3447111850202
 30
0.0
 10
314.0920039379071
 20
-181.3468765236796
 30
0.0
  0
SPLINE
  5
141
330
1F
100
AcDbEntity
  8
Table_Miura_9553-71_2D
100
AcDbSpline
210
0.0
220
0.0
230
1.0
 70
     8
 71
     3
 72
    21
 73
    17
 74
     0
 42
0.0000000001
 43
0.0000000001
 40
0.0
 40
0.0
 40
0.0
 40
0.0
 40
1.091200619832589
 40
2.108475076510265
 40
4.196394565957977
 40
6.382145182392394
 40
8.490982845352112
 40
12.81895580244948
 40
17.27666290000627
 40
21.93536994694479
 40
26.72660484100899
 40
31.591605498907
 40
34.06202637132719
 40
35.29851844026861
 40
35.89107656027873
 40
36.53847946972913
 40
36.53847946972913
 40
36.53847946972913
 40
36.53847946972913
 10
308.1965179244971
 20
-148.9197180622961
 30
0.0
 10
308.5089404992941
 20
-149.1058711441284
 30
0.0
 10
309.1102677447816
 20
-149.4704254059214
 30
0.0
 10
310.2537078339783
 20
-150.2773367782505
 30
0.0
 10
311.6099442472723
 20
-151.4088108428403
 30
0.0
 10
313.0729272985218
 20
-152.958972342571
 30
0.0
 10
314.8045830313013
 20
-155.2582731863513
 30
0.0
 10
316.4942704343112
 20
-158.4962452053456
 30
0.0
 10
317.7210563332947
 20
-162.8290779082803
 30
0.0
 10
318.1103824101992
 20
-167.4693170870758
 30
0.0
 10
317.6336097370586
 20
-172.2359495815191
 30
0.0
 10
316.5444464997372
 20
-176.1436660087201
 30
0.0
 10
315.434998505355
 20
-178.7795782701248
 30
0.0
 10
314.7976459644733
 20
-180.0635053409805
 30
0.0
 10
314.4081652919476
 20
-180.7914042969088
 30
0.0
 10
314.2041724798519
 20
-181.1509114762431
 30
0.0
 10
314.0970039354206
 20
-181.3382162739491
 30
0.0
  0
SPLINE
  5
142
330
1F
100
AcDbEntity
  8
Table_Miura_9553-71_2D
100
AcDbSpline
210
0.0
220
0.0
230
1.0
 70
    24
 71
     2
 72
     6
 73
     3
 74
     0
 42
0.0000000001
 43
0.0000000001
 40
0.0
 40
0.0
 40
0.0
 40
0.0064177164631026
 40
0.0064177164631026
 40
0.0064177164631026
 10
308.1909386453663
 20
-148.9165465123622
 30
0.0
 10
308.1937282849317
 20
-148.9181322873291
 30
0.0
 10
308.1965179244971
 20
-148.9197180622961
 30
0.0
  0
SPLINE
  5
143
330
1F
100
AcDbEntity
  8
Table_Miura_9553-71_2D
100
AcDbSpline
210
0.0
220
0.0
230
1.0
 70
    24
 71
     2
 72
     6
 73
     3
 74
     0
 42
0.0000000001
 43
0.0000000001
 40
0.0
 40
0.0
 40
0.0
 40
0.0049689727683289
 40
0.0049689727683289
 40
0.0049689727683289
 10
314.0970039354206
 20
-181.3382162739486
 30
0.0
 10
314.095761216789
 20
-181.3403676277075
 30
0.0
 10
314.0945184981574
 20
-181.3425189814663
 30
0.0
  0
SPLINE
  5
144
330
1F
100
AcDbEntity
  8
Table_Miura_9553-71_2D
100
AcDbSpline
210
0.0
220
0.0
230
1.0
 70
    24
 71
     2
 72
     6
 73
     3
 74
     0
 42
0.0000000001
 43
0.0000000001
 40
0.0
 40
0.0
 40
0.0
 40
0.0064177164832391
 40
0.0064177164832391
 40
0.0064177164832391
 10
-308.1965179244953
 20
-148.9197180622958
 30
0.0
 10
-308.1937282849212
 20
-148.9181322873239
 30
0.0
 10
-308.1909386453471
 20
-148.916546512352
 30
0.0
  0
SPLINE
  5
145
330
1F
100
AcDbEntity
  8
Table_Miura_9553-71_2D
100
AcDbSpline
210
0.0
220
0.0
230
1.0
 70
     8
 71
     3
 72
    21
 73
    17
 74
     0
 42
0.0000000001
 43
0.0000000001
 40
0.0
 40
0.0
 40
0.0
 40
0.0
 40
0.6474029094494482
 40
1.239961029460378
 40
2.476453098401701
 40
4.946873970821113
 40
9.81187462871941
 40
14.60310952278433
 40
19.26181656972226
 40
23.71952366727875
 40
28.04749662437723
 40
30.15633428733683
 40
32.3420849037702
 40
34.43000439321883
 40
35.4472788498954
 40
36.53847946972824
 40
36.53847946972824
 40
36.53847946972824
 40
36.53847946972824
 10
-314.0970039354188
 20
-181.3382162739484
 30
0.0
 10
-314.2041697051127
 20
-181.1509099550525
 30
0.0
 10
-314.4081705238486
 20
-180.7914071651861
 30
0.0
 10
-314.7974749608175
 20
-180.0634298001096
 30
0.0
 10
-315.4351875735201
 20
-178.7796580056423
 30
0.0
 10
-316.5442846490805
 20
-176.1436268969246
 30
0.0
 10
-317.6337947178627
 20
-172.2359841849917
 30
0.0
 10
-318.1103777557264
 20
-167.4693519956798
 30
0.0
 10
-317.7210600642156
 20
-162.8290446808474
 30
0.0
 10
-316.4941912444083
 20
-158.4962010702784
 30
0.0
 10
-314.804698410624
 20
-155.2583791980574
 30
0.0
 10
-313.0728028644198
 20
-152.9587373685085
 30
0.0
 10
-311.6100095530182
 20
-151.409024795902
 30
0.0
 10
-310.253720438639
 20
-150.2771991208055
 30
0.0
 10
-309.1102514725262
 20
-149.4704501020484
 30
0.0
 10
-308.5089496171577
 20
-149.1058573060992
 30
0.0
 10
-308.1965179244962
 20
-148.9197180622961
 30
0.0
  0
SPLINE
  5
146
330
1F
100
AcDbEntity
  8
Table_Miura_9553-71_2D
100
AcDbSpline
210
0.0
220
0.0
230
1.0
 70
    24
 71
     2
 72
     6
 73
     3
 74
     0
 42
0.0000000001
 43
0.0000000001
 40
0.0
 40
0.0
 40
0.0
 40
0.0049999976354267
 40
0.0049999976354267
 40
0.0049999976354267
 10
-314.0945029797848
 20
-181.3425458463605
 30
0.0
 10
-314.0957534576019
 20
-181.3403810601545
 30
0.0
 10
-314.0970039354188
 20
-181.3382162739484
 30
0.0
  0
SPLINE
  5
147
330
1F
100
AcDbEntity
  8
Table_Miura_9553-71_2D
100
AcDbSpline
210
0.0
220
0.0
230
1.0
 70
     8
 71
     3
 72
    21
 73
    17
 74
     0
 42
0.0000000001
 43
0.0000000001
 40
0.0
 40
0.0
 40
0.0
 40
0.0
 40
1.091200619832687
 40
2.108475076510281
 40
4.196394565958211
 40
6.382145182392561
 40
8.490982845351998
 40
12.81895580244923
 40
17.27666290000628
 40
21.9353699469448
 40
26.72660484100899
 40
31.59160549890699
 40
34.06202637132714
 40
35.29851844026844
 40
35.89107656027871
 40
36.5384794697291
 40
36.5384794697291
 40
36.5384794697291
 40
36.5384794697291
 10
-283.0665179286125
 20
-192.4461548493709
 30
0.0
 10
-283.3839425138713
 20
-192.6236441949457
 30
0.0
 10
-284.0003193883867
 20
-192.9621317346286
 30
0.0
 10
-285.2708451800209
 20
-193.5489242134121
 30
0.0
 10
-286.9288486703291
 20
-194.1577223685699
 30
0.0
 10
-289.0028194346887
 20
-194.6496221063921
 30
0.0
 10
-291.8599002427345
 20
-194.9996295396973
 30
0.0
 10
-295.5089099694305
 20
-194.8439557456604
 30
0.0
 10
-299.8746461100136
 20
-193.7399671477191
 30
0.0
 10
-304.087874156935
 20
-191.7570138312738
 30
0.0
 10
-307.9775126510622
 20
-188.9608003372859
 30
0.0
 10
-310.8171127291389
 20
-186.0636990912938
 30
0.0
 10
-312.5451557124744
 20
-183.7849328132809
 30
0.0
 10
-313.3383929019992
 20
-182.5910057862806
 30
0.0
 10
-313.7740315529591
 20
-181.8897561516275
 30
0.0
 10
-313.9833774970575
 20
-181.5333396044964
 30
0.0
 10
-314.0920039379062
 20
-181.346876523679
 30
0.0
  0
SPLINE
  5
148
330
1F
100
AcDbEntity
  8
Table_Miura_9553-71_2D
100
AcDbSpline
210
0.0
220
0.0
230
1.0
 70
    24
 71
     2
 72
     6
 73
     3
 74
     0
 42
0.0000000001
 43
0.0000000001
 40
0.0
 40
0.0
 40
0.0
 40
0.006417716462647
 40
0.006417716462647
 40
0.006417716462647
 10
-283.0609816462356
 20
-192.4429088268761
 30
0.0
 10
-283.0637497874241
 20
-192.4445318381235
 30
0.0
 10
-283.0665179286125
 20
-192.4461548493709
 30
0.0
  0
SPLINE
  5
149
330
1F
100
AcDbEntity
  8
Table_Miura_9553-71_2D
100
AcDbSpline
210
0.0
220
0.0
230
1.0
 70
    24
 71
     2
 72
     6
 73
     3
 74
     0
 42
0.0000000001
 43
0.0000000001
 40
0.0
 40
0.0
 40
0.0
 40
0.0049689727684098
 40
0.0049689727684098
 40
0.0049689727684098
 10
-314.0920039379062
 20
-181.3468765236793
 30
0.0
 10
-314.0932457055978
 20
-181.3447246208951
 30
0.0
 10
-314.0944874732895
 20
-181.3425727181109
 30
0.0
  0
SPLINE
  5
14A
330
1F
100
AcDbEntity
  8
Table_Miura_9553-71_2D
100
AcDbSpline
210
0.0
220
0.0
230
1.0
 70
    24
 71
     2
 72
     6
 73
     3
 74
     0
 42
0.0000000001
 43
0.0000000001
 40
0.0
 40
0.0
 40
0.0
 40
0.0064177164451132
 40
0.0064177164451132
 40
0.0064177164451132
 10
25.12999999588374
 20
341.3658729116685
 30
0.0
 10
25.12997849750718
 20
341.362664125463
 30
0.0
 10
25.12995699913063
 20
341.3594553392576
 30
0.0
  0
SPLINE
  5
14B
330
1F
100
AcDbEntity
  8
Table_Miura_9553-71_2D
100
AcDbSpline
210
0.0
220
0.0
230
1.0
 70
     8
 71
     3
 72
    21
 73
    17
 74
     0
 42
0.0000000001
 43
0.0000000001
 40
0.0
 40
0.0
 40
0.0
 40
0.0
 40
0.6474029094497073
 40
1.239961029460452
 40
2.4764530984018
 40
4.946873970821248
 40
9.811874628719307
 40
14.60310952278406
 40
19.26181656972217
 40
23.71952366727891
 40
28.04749662437723
 40
30.15633428733689
 40
32.34208490377012
 40
34.43000439321898
 40
35.44727884989555
 40
36.5384794697283
 40
36.5384794697283
 40
36.5384794697283
 40
36.5384794697283
 10
0.0049999975135506
 20
362.6850927976295
 30
0.0
 10
0.2207949128123801
 20
362.6842479171514
 30
0.0
 10
0.634133870938058
 20
362.6811664136364
 30
0.0
 10
1.459232980959314
 20
362.6543252633205
 30
0.0
 10
2.889868273977299
 20
362.5647146890003
 30
0.0
 10
5.727286717078641
 20
362.2072053773397
 30
0.0
 10
9.656159608911368
 20
361.1969274186164
 30
0.0
 10
14.02247569428891
 20
359.2263443417654
 30
0.0
 10
17.84644086454227
 20
356.5690316733587
 30
0.0
 10
20.98535909201746
 20
353.3401103030067
 30
0.0
 10
22.94464866939779
 20
350.2580556533308
 30
0.0
 10
24.0702491402908
 20
347.6083691988407
 30
0.0
 10
24.68094294103048
 20
345.5666967443788
 30
0.0
 10
24.98298817113027
 20
343.8262030788998
 30
0.0
 10
25.1099188327953
 20
342.4325553964306
 30
0.0
 10
25.12501452843844
 20
341.7295163163628
 30
0.0
 10
25.12999999588374
 20
341.3658729116689
 30
0.0
  0
SPLINE
  5
14C
330
1F
100
AcDbEntity
  8
Table_Miura_9553-71_2D
100
AcDbSpline
210
0.0
220
0.0
230
1.0
 70
    24
 71
     2
 72
     6
 73
     3
 74
     0
 42
0.0000000001
 43
0.0000000001
 40
0.0
 40
0.0
 40
0.0
 40
0.0049999976354052
 40
0.0049999976354052
 40
0.0049999976354052
 10
0.0000000000009095
 20
362.6850916927228
 30
0.0
 10
0.0024999987572301
 20
362.6850922451762
 30
0.0
 10
0.0049999975135506
 20
362.6850927976295
 30
0.0
  0
SPLINE
  5
14D
330
1F
100
AcDbEntity
  8
Table_Miura_9553-71_2D
100
AcDbSpline
210
0.0
220
0.0
230
1.0
 70
     8
 71
     3
 72
    21
 73
    17
 74
     0
 42
0.0000000001
 43
0.0000000001
 40
0.0
 40
0.0
 40
0.0
 40
0.0
 40
1.091200619832775
 40
2.108475076510289
 40
4.196394565958102
 40
6.382145182392427
 40
8.490982845352077
 40
12.81895580244936
 40
17.27666290000615
 40
21.93536994694509
 40
26.72660484100907
 40
31.5916054989074
 40
34.06202637132732
 40
35.29851844026865
 40
35.89107656027872
 40
36.53847946972933
 40
36.53847946972933
 40
36.53847946972933
 40
36.53847946972933
 10
-25.12999999588192
 20
341.3658729116685
 30
0.0
 10
-25.12499798542376
 20
341.7295153390752
 30
0.0
 10
-25.10994835639485
 20
342.4325571405516
 30
0.0
 10
-24.982862653952
 20
343.8262609916644
 30
0.0
 10
-24.68109557694243
 20
345.566533211412
 30
0.0
 10
-24.07010786383125
 20
347.6085944489647
 30
0.0
 10
-22.94468278856584
 20
350.2579027260498
 30
0.0
 10
-20.98536046487607
 20
353.3402009510077
 30
0.0
 10
-17.84641022328015
 20
356.5690450560007
 30
0.0
 10
-14.02250825326155
 20
359.2263309183512
 30
0.0
 10
-9.656097085994588
 20
361.1967499188062
 30
0.0
 10
-5.727333770593759
 20
362.2073651000163
 30
0.0
 10
-2.88984279287979
 20
362.5645110834067
 30
0.0
 10
-1.459253062470451
 20
362.6545111272628
 30
0.0
 10
-0.6341337389876572
 20
362.681160448538
 30
0.0
 10
-0.2207949827907214
 20
362.6842510807414
 30
0.0
 10
-0.0049999975117316
 20
362.6850927976295
 30
0.0
  0
SPLINE
  5
14E
330
1F
100
AcDbEntity
  8
Table_Miura_9553-71_2D
100
AcDbSpline
210
0.0
220
0.0
230
1.0
 70
    24
 71
     2
 72
     6
 73
     3
 74
     0
 42
0.0000000001
 43
0.0000000001
 40
0.0
 40
0.0
 40
0.0
 40
0.0064177164454542
 40
0.0064177164454542
 40
0.0064177164454542
 10
-25.12995699912881
 20
341.3594553392572
 30
0.0
 10
-25.12997849750536
 20
341.3626641254629
 30
0.0
 10
-25.12999999588192
 20
341.3658729116685
 30
0.0
  0
SPLINE
  5
14F
330
1F
100
AcDbEntity
  8
Table_Miura_9553-71_2D
100
AcDbSpline
210
0.0
220
0.0
230
1.0
 70
    24
 71
     2
 72
     6
 73
     3
 74
     0
 42
0.0000000001
 43
0.0000000001
 40
0.0
 40
0.0
 40
0.0
 40
0.004968972768345
 40
0.004968972768345
 40
0.004968972768345
 10
-0.0049999975126411
 20
362.6850927976295
 30
0.0
 10
-0.0025155111893582
 20
362.6850922486042
 30
0.0
 10
-0.0000310248660753
 20
362.6850916995788
 30
0.0
  0
SPLINE
  5
150
330
1F
100
AcDbEntity
  8
Table_Miura_9553-71_2D
100
AcDbSpline
210
0.0
220
0.0
230
1.0
 70
     8
 71
     3
 72
    16
 73
    12
 74
     0
 42
0.0000000001
 43
0.0000000001
 40
0.0
 40
0.0
 40
0.0
 40
0.0
 40
1.953155402088032
 40
3.893592821351477
 40
7.847355141483413
 40
11.91041431591795
 40
16.08262218382918
 40
20.36384898894159
 40
24.75401732875273
 40
29.18049074721571
 40
33.7142689607704
 40
33.7142689607704
 40
33.7142689607704
 40
33.7142689607704
 10
311.0890678691057
 20
-150.993479551156
 30
0.0
 10
311.5965982939906
 20
-151.4012487369625
 30
0.0
 10
312.5669657744757
 20
-152.2657110115049
 30
0.0
 10
314.3325261163937
 20
-154.2005588067849
 30
0.0
 10
316.1804890668109
 20
-156.977574526749
 30
0.0
 10
317.7405468272564
 20
-160.7489433907572
 30
0.0
 10
318.6041799365184
 20
-164.8479752256353
 30
0.0
 10
318.7465998719399
 20
-169.1422178697456
 30
0.0
 10
318.1678353979178
 20
-173.4841312815921
 30
0.0
 10
316.887062063387
 20
-177.760068977952
 30
0.0
 10
315.5944804775345
 20
-180.4625866026945
 30
0.0
 10
314.8387969368987
 20
-181.7713961771472
 30
0.0
  0
SPLINE
  5
151
330
1F
100
AcDbEntity
  8
Table_Miura_9553-71_2D
100
AcDbSpline
210
0.0
220
0.0
230
1.0
 70
     8
 71
     3
 72
    16
 73
    12
 74
     0
 42
0.0000000001
 43
0.0000000001
 40
0.0
 40
0.0
 40
0.0
 40
0.0
 40
4.517138909949261
 40
8.979902653169208
 40
13.351933162907
 40
17.61498633655948
 40
21.78720834057714
 40
25.85028218879171
 40
29.82218011666199
 40
31.76261295261775
 40
33.71577125458974
 40
33.71577125458974
 40
33.71577125458974
 40
33.71577125458974
 10
314.838796975685
 20
-181.7713961912368
 30
0.0
 10
314.0859480232357
 20
-183.0754122214324
 30
0.0
 10
312.3890707276014
 20
-185.5521306210826
 30
0.0
 10
309.3258840780691
 20
-188.7997996705994
 30
0.0
 10
305.8542044765845
 20
-191.4706918756248
 30
0.0
 10
302.0756309662738
 20
-193.4900423834896
 30
0.0
 10
298.1007198544503
 20
-194.792774747091
 30
0.0
 10
294.049019938896
 20
-195.3316700064883
 30
0.0
 10
290.7137938424594
 20
-195.1209858804566
 30
0.0
 10
288.1494467421498
 20
-194.5580734590921
 30
0.0
 10
286.9156351980791
 20
-194.1499601684706
 30
0.0
 10
286.3087255693281
 20
-193.9142966940705
 30
0.0
  0
SPLINE
  5
152
330
1F
100
AcDbEntity
  8
Table_Miura_9553-71_2D
100
AcDbSpline
210
0.0
220
0.0
230
1.0
 70
     8
 71
     3
 72
    16
 73
    12
 74
     0
 42
0.0000000001
 43
0.0000000001
 40
0.0
 40
0.0
 40
0.0
 40
0.0
 40
1.953155402088666
 40
3.893592821351789
 40
7.847355141483859
 40
11.9104143159183
 40
16.08262218382957
 40
20.36384898894194
 40
24.75401732875309
 40
29.18049074721597
 40
33.71426896077073
 40
33.71426896077073
 40
33.71426896077073
 40
33.71426896077073
 10
-286.3087230316596
 20
-193.9142958386878
 30
0.0
 10
-286.9156267178905
 20
-194.1499454869296
 30
0.0
 10
-288.1494567485015
 20
-194.5580772387653
 30
0.0
 10
-290.707864262632
 20
-195.1196734491411
 30
0.0
 10
-294.0368118980405
 20
-195.3315484494746
 30
0.0
 10
-298.0829420215314
 20
-194.7969136693844
 30
0.0
 10
-302.0646242760886
 20
-193.495325964117
 30
0.0
 10
-305.8547574636132
 20
-191.4715439241441
 30
0.0
 10
-309.3255825422948
 20
-188.7993624809075
 30
0.0
 10
-312.3882665450737
 20
-185.5522113885335
 30
0.0
 10
-314.0824246693492
 20
-183.0815440863484
 30
0.0
 10
-314.8380452392239
 20
-181.7726981557096
 30
0.0
  0
SPLINE
  5
153
330
1F
100
AcDbEntity
  8
Table_Miura_9553-71_2D
100
AcDbSpline
210
0.0
220
0.0
230
1.0
 70
     8
 71
     3
 72
    16
 73
    12
 74
     0
 42
0.0000000001
 43
0.0000000001
 40
0.0
 40
0.0
 40
0.0
 40
0.0
 40
4.517138909949214
 40
8.979902653169327
 40
13.35193316290711
 40
17.61498633655982
 40
21.78720834057657
 40
25.85028218879279
 40
29.82218011666223
 40
31.76261295261852
 40
33.71577125458879
 40
33.71577125458879
 40
33.71577125458879
 40
33.71577125458879
 10
-314.8380452708189
 20
-181.7726981822548
 30
0.0
 10
-315.5909318036875
 20
-180.4687038491249
 30
0.0
 10
-316.8873942079845
 20
-177.7608058041754
 30
0.0
 10
-318.1683647831887
 20
-173.4841738243882
 30
0.0
 10
-318.7455854827677
 20
-169.1421649931907
 30
0.0
 10
-318.6051075665664
 20
-164.8601490892594
 30
0.0
 10
-317.7458513318606
 20
-160.7664089068302
 30
0.0
 10
-316.1866983587033
 20
-156.9880862217554
 30
0.0
 10
-314.3366275051685
 20
-154.2050377578926
 30
0.0
 10
-312.5669574980084
 20
-152.2657042355859
 30
0.0
 10
-311.5966152486717
 20
-151.4012487402476
 30
0.0
 10
-311.0890698787216
 20
-150.9934813211494
 30
0.0
  0
SPLINE
  5
154
330
1F
100
AcDbEntity
  8
Table_Miura_9553-71_2D
100
AcDbSpline
210
0.0
220
0.0
230
1.0
 70
     8
 71
     3
 72
    16
 73
    12
 74
     0
 42
0.0000000001
 43
0.0000000001
 40
0.0
 40
0.0
 40
0.0
 40
0.0
 40
1.953155402089814
 40
3.893592821353496
 40
7.847355141485272
 40
11.91041431592
 40
16.08262218383097
 40
20.36384898894331
 40
24.75401732875448
 40
29.18049074721741
 40
33.71426896077235
 40
33.71426896077235
 40
33.71426896077235
 40
33.71426896077235
 10
-24.78034483744432
 20
344.9077753898436
 30
0.0
 10
-24.68097157609827
 20
345.5511942238919
 30
0.0
 10
-24.41750902597141
 20
346.8237882502723
 30
0.0
 10
-23.62466185376434
 20
349.3202322559276
 30
0.0
 10
-22.1436771687795
 20
352.3091229762244
 30
0.0
 10
-19.65760480572862
 20
355.5458570601426
 30
0.0
 10
-16.53955566043351
 20
358.3433011897528
 30
0.0
 10
-12.89184240833038
 20
360.6137617938907
 30
0.0
 10
-8.842252855626613
 20
362.2834937625015
 30
0.0
 10
-4.498795518312363
 20
363.3122803664881
 30
0.0
 10
-1.512055808184414
 20
363.5441306890432
 30
0.0
 10
-0.0007516976729676
 20
363.5440943328582
 30
0.0
  0
SPLINE
  5
155
330
1F
100
AcDbEntity
  8
Table_Miura_9553-71_2D
100
AcDbSpline
210
0.0
220
0.0
230
1.0
 70
     8
 71
     3
 72
    16
 73
    12
 74
     0
 42
0.0000000001
 43
0.0000000001
 40
0.0
 40
0.0
 40
0.0
 40
0.0
 40
4.517138909948996
 40
8.979902653169411
 40
13.35193316290711
 40
17.61498633656025
 40
21.78720834057659
 40
25.85028218879138
 40
29.82218011666214
 40
31.76261295261828
 40
33.71577125458813
 40
33.71577125458813
 40
33.71577125458813
 40
33.71577125458813
 10
-0.0007517048643422
 20
363.5440943734932
 30
0.0
 10
1.504983780451766
 20
363.5441160705578
 30
0.0
 10
4.498323480385806
 20
363.3129364252621
 30
0.0
 10
8.842480705117848
 20
362.2839734949893
 30
0.0
 10
12.89138100618311
 20
360.6128568688166
 30
0.0
 10
16.52947660029076
 20
358.350191472749
 30
0.0
 10
19.64513147741491
 20
355.559183653921
 30
0.0
 10
22.1376784198128
 20
352.3197562282452
 30
0.0
 10
23.62283366271276
 20
349.3260236383513
 30
0.0
 10
24.41751075585945
 20
346.8237776946791
 30
0.0
 10
24.68098005059529
 20
345.5512089087209
 30
0.0
 10
24.78034430939442
 20
344.9077780152224
 30
0.0
  0
SPLINE
  5
156
330
1F
100
AcDbEntity
  8
Table_Miura_9553-71_2D
100
AcDbSpline
210
0.0
220
0.0
230
1.0
 70
    15
 71
     2
 72
    12
 73
     9
 74
     0
 42
0.0000000001
 43
0.0000000001
 40
0.0
 40
0.0
 40
0.0
 40
471.2388981516787
 40
471.2388981516787
 40
942.4777963033575
 40
942.4777963033575
 40
1413.716694455036
 40
1413.716694455036
 40
1884.955592606715
 40
1884.955592606715
 40
1884.955592606715
 10
-0.0000000000002274
 20
299.9999999999996
 30
0.0
 41
1.0
 10
300.0000000720713
 20
300.0000022007378
 30
0.0
 41
0.7071067811865476
 10
300.0000022728095
 20
0.0000021286662673
 30
0.0
 41
1.0
 10
300.0000044735473
 20
-299.9999979434051
 30
0.0
 41
0.7071067811865476
 10
0.0000044014761897
 20
-300.0000001441435
 30
0.0
 41
1.0
 10
-299.9999956705955
 20
-300.0000023448818
 30
0.0
 41
0.7071067811865476
 10
-299.9999978713336
 20
-0.0000022728102067
 30
0.0
 41
1.0
 10
-300.0000000720716
 20
299.9999977992613
 30
0.0
 41
0.7071067811865476
 10
-0.0000000000002274
 20
299.9999999999996
 30
0.0
 41
1.0
  0
SPLINE
  5
157
330
1F
100
AcDbEntity
  8
Table_Miura_9553-71_2D
100
AcDbSpline
210
0.0
220
0.0
230
1.0
 70
    15
 71
     2
 72
    12
 73
     9
 74
     0
 42
0.0000000001
 43
0.0000000001
 40
0.0
 40
0.0
 40
0.0
 40
422.067346643259
 40
422.067346643259
 40
844.1346932865181
 40
844.1346932865181
 40
1266.202039929777
 40
1266.202039929777
 40
1688.269386573036
 40
1688.269386573036
 40
1688.269386573036
 10
0.0001073240753158
 20
268.6964181437991
 30
0.0
 41
1.0
 10
-268.6963108197237
 20
268.6965254678747
 30
0.0
 41
0.7071067811865475
 10
-268.6964181437995
 20
0.0001073240756
 30
0.0
 41
1.0
 10
-268.6965254678756
 20
-268.6963108197237
 30
0.0
 41
0.7071067811865472
 10
-0.0001073240762253
 20
-268.6964181437995
 30
0.0
 41
1.0
 10
268.6963108197232
 20
-268.6965254678756
 30
0.0
 41
0.7071067811865463
 10
268.6964181437988
 20
-0.0001073240759411
 30
0.0
 41
1.0
 10
268.6965254678746
 20
268.6963108197233
 30
0.0
 41
0.7071067811865474
 10
0.0001073240753158
 20
268.6964181437991
 30
0.0
 41
1.0
  0
SPLINE
  5
158
330
1F
100
AcDbEntity
  8
Table_Miura_9553-71_2D
 62
     9
100
AcDbSpline
210
0.0
220
0.0
230
1.0
 70
    24
 71
     2
 72
     6
 73
     3
 74
     0
 42
0.0000000001
 43
0.0000000001
 40
0.0
 40
0.0
 40
0.0
 40
161.2204025091209
 40
161.2204025091209
 40
161.2204025091209
 10
-106.7089949968013
 20
-90.62609285499515
 30
0.0
 10
-176.5194770874269
 20
-130.9311934822755
 30
0.0
 10
-246.3299591780525
 20
-171.2362941095558
 30
0.0
  0
SPLINE
  5
159
330
1F
100
AcDbEntity
  8
Table_Miura_9553-71_2D
 62
     9
100
AcDbSpline
210
0.0
220
0.0
230
1.0
 70
    24
 71
     2
 72
     6
 73
     3
 74
     0
 42
0.0000000001
 43
0.0000000001
 40
0.0
 40
0.0
 40
0.0
 40
161.2195470941747
 40
161.2195470941747
 40
161.2195470941747
 10
-25.13000115975137
 20
137.7259695286505
 30
0.0
 10
-25.13000115975174
 20
218.3357430757379
 30
0.0
 10
-25.13000115975209
 20
298.9455166228252
 30
0.0
  0
SPLINE
  5
15A
330
1F
100
AcDbEntity
  8
Table_Miura_9553-71_2D
 62
     9
100
AcDbSpline
210
0.0
220
0.0
230
1.0
 70
    24
 71
     2
 72
     6
 73
     3
 74
     0
 42
0.0000000001
 43
0.0000000001
 40
42.41402934839254
 40
42.41402934839254
 40
42.41402934839254
 40
203.6333458706113
 40
203.6333458706113
 40
203.6333458706113
 10
25.13000115975319
 20
298.9454256609354
 30
0.0
 10
25.13000115975319
 20
218.335767399826
 30
0.0
 10
25.13000115975319
 20
137.7261091387166
 30
0.0
  0
SPLINE
  5
15B
330
1F
100
AcDbEntity
  8
Table_Miura_9553-71_2D
 62
     9
100
AcDbSpline
210
0.0
220
0.0
230
1.0
 70
    24
 71
     2
 72
     6
 73
     3
 74
     0
 42
0.0000000001
 43
0.0000000001
 40
42.41328163187513
 40
42.41328163187513
 40
42.41328163187513
 40
203.633334284065
 40
203.633334284065
 40
203.633334284065
 10
-271.4599810888637
 20
-127.7098672872281
 30
0.0
 10
-201.6496504907331
 20
-87.40485412418081
 30
0.0
 10
-131.8393198926024
 20
-47.09984096113351
 30
0.0
  0
SPLINE
  5
15C
330
1F
100
AcDbEntity
  8
Table_Miura_9553-71_2D
 62
     9
100
AcDbSpline
210
0.0
220
0.0
230
1.0
 70
    24
 71
     2
 72
     6
 73
     3
 74
     0
 42
0.0000000001
 43
0.0000000001
 40
0.0
 40
0.0
 40
0.0
 40
161.2194600674175
 40
161.2194600674175
 40
161.2194600674175
 10
131.838982138609
 20
-47.09964595877372
 30
0.0
 10
201.6490561400064
 20
-87.404510975628
 30
0.0
 10
271.4591301414037
 20
-127.7093759924823
 30
0.0
  0
SPLINE
  5
15D
330
1F
100
AcDbEntity
  8
Table_Miura_9553-71_2D
 62
     9
100
AcDbSpline
210
0.0
220
0.0
230
1.0
 70
    24
 71
     2
 72
     6
 73
     3
 74
     0
 42
0.0000000001
 43
0.0000000001
 40
42.41419722074819
 40
42.41419722074819
 40
42.41419722074819
 40
203.6338520885392
 40
203.6338520885392
 40
203.6338520885392
 10
246.3291870058998
 20
-171.2358482957548
 30
0.0
 10
176.5190286534665
 20
-130.9309345788069
 30
0.0
 10
106.7088703010331
 20
-90.62602086185895
 30
0.0
  0
SPLINE
  5
15E
330
1F
100
AcDbEntity
  8
Table_Miura_9553-71_2D
 62
     9
100
AcDbSpline
210
0.0
220
0.0
230
1.0
 70
    11
 71
     3
 72
    39
 73
    35
 74
     0
 42
0.0000000001
 43
0.0000000001
 40
0.0
 40
0.0
 40
0.0
 40
0.0
 40
27.49163491281068
 40
54.98554466015822
 40
82.47417243782985
 40
109.9550851858812
 40
137.4405102302657
 40
164.9353017108435
 40
192.4180551861614
 40
219.9101446616718
 40
247.4017795744827
 40
274.8956893218303
 40
302.3843170995021
 40
329.8652298475533
 40
357.3506548919382
 40
384.8454463725157
 40
412.3281998478335
 40
439.8202893233441
 40
467.311924236154
 40
494.8058339835014
 40
522.2944617611731
 40
549.7753745092244
 40
577.2607995536105
 40
604.755591034188
 40
632.2383445095058
 40
659.7304339850166
 40
687.2220688978269
 40
714.7159786451745
 40
742.2046064228462
 40
769.6855191708972
 40
797.1709442152831
 40
824.6657356958603
 40
852.1484891711782
 40
879.6405786466888
 40
879.6405786466888
 40
879.6405786466888
 40
879.6405786466888
 10
140.0000000000009
 20
0.0000000000005116
 30
0.0
 10
140.0004090247703
 20
-9.163905643350943
 30
0.0
 10
138.1944212161624
 20
-27.49226151472897
 30
0.0
 10
130.1746570607302
 20
-53.92691684113075
 30
0.0
 10
117.1529651417422
 20
-78.28553407702433
 30
0.0
 10
99.63172728010432
 20
-99.63384262040996
 30
0.0
 10
78.28162397614232
 20
-117.156235995207
 30
0.0
 10
53.92195901493142
 20
-130.1759647592557
 30
0.0
 10
27.4892560780745
 20
-138.1956047753177
 30
0.0
 10
-0.0000802954209576
 20
-140.9019314174166
 30
0.0
 10
-27.49217534757645
 20
-138.1952675994851
 30
0.0
 10
-53.92697059658713
 20
-130.1741390086331
 30
0.0
 10
-78.2855009168843
 20
-117.1532839944569
 30
0.0
 10
-99.63386305126551
 20
-99.63153087866849
 30
0.0
 10
-117.156223404816
 20
-78.28174500353094
 30
0.0
 10
-130.1759725149677
 20
-53.9218844620375
 30
0.0
 10
-138.1955999973516
 20
-27.48930200693806
 30
0.0
 10
-140.9019343612681
 20
0.0001085936183927
 30
0.0
 10
-138.1952657857837
 20
27.49215791311335
 30
0.0
 10
-130.1741401260178
 20
53.9269813375987
 30
0.0
 10
-117.153283306192
 20
78.28549430083945
 30
0.0
 10
-99.63153130265345
 20
99.63386712688043
 30
0.0
 10
-78.28174474225763
 20
117.1562208932944
 30
0.0
 10
-53.92188462298328
 20
130.1759740620686
 30
0.0
 10
-27.48930190778628
 20
138.1955990442501
 30
0.0
 10
0.0001085325284294
 20
140.9019349485069
 30
0.0
 10
27.4921579507527
 20
138.1952654239892
 30
0.0
 10
53.92698131441102
 20
130.174140348913
 30
0.0
 10
78.28549431512421
 20
117.1532831688992
 30
0.0
 10
99.63394752379191
 20
99.631606157544
 30
0.0
 10
117.1558984336098
 20
78.28154887639255
 30
0.0
 10
130.1764166945277
 20
53.92214983624064
 30
0.0
 10
138.1952207402082
 20
27.4890020842378
 30
0.0
 10
139.9993145385724
 20
9.163944759148961
 30
0.0
 10
140.0000000000009
 20
0.0000000000005116
 30
0.0
  0
SPLINE
  5
15F
330
1F
100
AcDbEntity
  8
Table_Miura_9553-71_2D
 62
     9
100
AcDbSpline
210
0.0
220
0.0
230
1.0
 70
    11
 71
     3
 72
    39
 73
    35
 74
     0
 42
0.0000000001
 43
0.0000000001
 40
0.0
 40
0.0
 40
0.0
 40
0.0
 40
17.98133963208148
 40
35.96416715575479
 40
53.94353992342775
 40
71.91786655367305
 40
89.89514452286815
 40
107.8785487581381
 40
125.8540793452332
 40
143.8357162912548
 40
161.8170559233368
 40
179.79988344701
 40
197.7792562146827
 40
215.7535828449282
 40
233.7308608141233
 40
251.7142650493934
 40
269.689795636488
 40
287.6714325825098
 40
305.6527722145915
 40
323.6355997382645
 40
341.6149725059374
 40
359.5892991361829
 40
377.566577105378
 40
395.5499813406479
 40
413.5255119277426
 40
431.5071488737649
 40
449.4884885058464
 40
467.4713160295196
 40
485.4506887971928
 40
503.4250154274383
 40
521.4022933966333
 40
539.3856976319033
 40
557.3612282189978
 40
575.3428651650199
 40
575.3428651650199
 40
575.3428651650199
 40
575.3428651650199
 10
91.56921938165394
 20
0.0000000000004832
 30
0.0
 10
91.56948691078923
 20
-5.993797758919327
 30
0.0
 10
90.38825195473783
 20
-17.98174947099955
 30
0.0
 10
85.14279807375258
 20
-35.2717548485829
 30
0.0
 10
76.62575404482412
 20
-51.20389460220589
 30
0.0
 10
65.16571066203503
 20
-65.16709423389571
 30
0.0
 10
51.20133713873838
 20
-76.62789339838411
 30
0.0
 10
35.268512103763
 20
-85.14365339470412
 30
0.0
 10
17.97978371751196
 20
-90.38902608036613
 30
0.0
 10
-0.000052518492339
 20
-92.15914192328604
 30
0.0
 10
-17.98169311200763
 20
-90.38880554516778
 30
0.0
 10
-35.27179000819069
 20
-85.14245923356641
 30
0.0
 10
-51.2038729132919
 20
-76.62596259549684
 30
0.0
 10
-65.16710759702253
 20
-65.16558220256277
 30
0.0
 10
-76.62788516343699
 20
-51.20141629862089
 30
0.0
 10
-85.14365846745112
 20
-35.26846334126054
 30
0.0
 10
-90.38902295525986
 20
-17.97981375801263
 30
0.0
 10
-92.15914384876123
 20
0.0000710273775724
 30
0.0
 10
-90.38880435888586
 20
17.98168170872125
 30
0.0
 10
-85.1424599644106
 20
35.27179703352107
 30
0.0
 10
-76.6259621453255
 20
51.2038685859626
 30
0.0
 10
-65.16558247987814
 20
65.16711026274153
 30
0.0
 10
-51.20141612773022
 20
76.62788352073916
 30
0.0
 10
-35.26846344652859
 20
85.14365947935699
 30
0.0
 10
-17.97981369316039
 20
90.38902233187071
 30
0.0
 10
0.000070987419349
 20
92.1591442328517
 30
0.0
 10
17.98168173334034
 20
90.38880412225063
 30
0.0
 10
35.27179701835394
 20
85.14246011019793
 30
0.0
 10
51.20386859530389
 20
76.62596205552756
 30
0.0
 10
65.16716284761696
 20
65.16563143990509
 30
0.0
 10
76.62767261086992
 20
51.20128801855694
 30
0.0
 10
85.14394899013405
 20
35.26863691346529
 30
0.0
 10
90.38877489611422
 20
17.97961758881644
 30
0.0
 10
91.56877104474006
 20
5.993823343227575
 30
0.0
 10
91.56921938165394
 20
0.0000000000004832
 30
0.0
  0
SPLINE
  5
160
330
1F
100
AcDbEntity
  8
Table_Miura_9553-71_2D
 62
     9
100
AcDbSpline
210
0.0
220
0.0
230
1.0
 70
    15
 71
     2
 72
    12
 73
     9
 74
     0
 42
0.0000000001
 43
0.0000000001
 40
0.0
 40
0.0
 40
0.0
 40
78.53981633974519
 40
78.53981633974519
 40
157.0796326794904
 40
157.0796326794904
 40
235.6194490192356
 40
235.6194490192356
 40
314.1592653589807
 40
314.1592653589807
 40
314.1592653589807
 10
50.00000000000091
 20
0.00000000000054
 30
0.0
 41
1.0
 10
50.00000000000028
 20
50.0000000000008
 30
0.0
 41
0.7071067811865476
 10
0.0
 20
50.00000000000063
 30
0.0
 41
1.0
 10
-49.99999999999989
 20
50.00000000000048
 30
0.0
 41
0.7071067811865476
 10
-50.0
 20
0.0000000000002558
 30
0.0
 41
1.0
 10
-49.99999999999989
 20
-50.0
 30
0.0
 41
0.7071067811865476
 10
0.0000000000009095
 20
-49.99999999999983
 30
0.0
 41
1.0
 10
50.00000000000028
 20
-49.99999999999968
 30
0.0
 41
0.7071067811865476
 10
50.00000000000091
 20
0.00000000000054
 30
0.0
 41
1.0
  0
ENDSEC
  0
SECTION
  2
OBJECTS
  0
DICTIONARY
  5
C
330
0
100
AcDbDictionary
281
     1
  3
ACAD_COLOR
350
169
  3
ACAD_GROUP
350
D
  3
ACAD_LAYOUT
350
1A
  3
ACAD_MATERIAL
350
165
  3
ACAD_MLEADERSTYLE
350
162
  3
ACAD_MLINESTYLE
350
17
  3
ACAD_PLOTSETTINGS
350
19
  3
ACAD_PLOTSTYLENAME
350
E
  3
ACAD_TABLESTYLE
350
161
  3
ACAD_VISUALSTYLE
350
2A
  3
AcDbVariableDictionary
350
16D
  3
DWGPROPS
350
173
  0
DICTIONARY
  5
169
102
{ACAD_REACTORS
330
C
102
}
330
C
100
AcDbDictionary
281
     1
  0
DICTIONARY
  5
D
102
{ACAD_REACTORS
330
C
102
}
330
C
100
AcDbDictionary
281
     1
  0
DICTIONARY
  5
1A
102
{ACAD_REACTORS
330
C
102
}
330
C
100
AcDbDictionary
281
     1
  3
Layout1
350
1E
  3
Layout2
350
26
  3
Model
350
22
  0
DICTIONARY
  5
165
102
{ACAD_REACTORS
330
C
102
}
330
C
100
AcDbDictionary
281
     1
  3
ByBlock
350
167
  3
ByLayer
350
166
  3
Global
350
168
  0
DICTIONARY
  5
162
102
{ACAD_REACTORS
330
C
102
}
330
C
100
AcDbDictionary
281
     1
  0
DICTIONARY
  5
17
102
{ACAD_REACTORS
330
C
102
}
330
C
100
AcDbDictionary
281
     1
  3
Standard
350
18
  0
DICTIONARY
  5
19
102
{ACAD_REACTORS
330
C
102
}
330
C
100
AcDbDictionary
281
     1
  0
ACDBDICTIONARYWDFLT
  5
E
102
{ACAD_REACTORS
330
C
102
}
330
C
100
AcDbDictionary
281
     1
  3
Normal
350
F
100
AcDbDictionaryWithDefault
340
F
  0
DICTIONARY
  5
161
102
{ACAD_REACTORS
330
C
102
}
330
C
100
AcDbDictionary
281
     1
  3
Standard
350
16A
  0
DICTIONARY
  5
2A
102
{ACAD_REACTORS
330
C
102
}
330
C
100
AcDbDictionary
281
     1
  3
2dWireframe
350
2F
  3
3D Hidden
350
31
  3
3dWireframe
350
30
  3
Basic
350
32
  3
Brighten
350
36
  3
ColorChange
350
3A
  3
Conceptual
350
34
  3
Dim
350
35
  3
Facepattern
350
39
  3
Flat
350
2B
  3
FlatWithEdges
350
2C
  3
Gouraud
350
2D
  3
GouraudWithEdges
350
2E
  3
Linepattern
350
38
  3
Realistic
350
33
  3
Thicken
350
37
  0
DICTIONARY
  5
16D
102
{ACAD_REACTORS
330
C
102
}
330
C
100
AcDbDictionary
281
     1
  3
CTABLESTYLE
350
16E
  3
DIMASSOC
350
172
  3
HIDETEXT
350
171
  3
INDEXCTL
350
170
  3
SORTENTS
350
16F
  0
XRECORD
  5
173
102
{ACAD_REACTORS
330
C
102
}
330
C
100
AcDbXrecord
280
     1
  1
DWGPROPS COOKIE
  2

  3

  4

  6

  7

  8
SCL2
  9

300
=
301
=
302
=
303
=
304
=
305
=
306
=
307
=
308
=
309
=
 40
0.0001727662037037
 41
2457213.713014873
 42
2457213.714250498
  1

 90
        0
  0
LAYOUT
  5
1E
102
{ACAD_XDICTIONARY
360
174
102
}
102
{ACAD_REACTORS
330
1A
102
}
330
1A
100
AcDbPlotSettings
  1

  2
none_device
  4

  6

 40
0.0
 41
0.0
 42
0.0
 43
0.0
 44
0.0
 45
0.0
 46
0.0
 47
0.0
 48
0.0
 49
0.0
140
0.0
141
0.0
142
1.0
143
1.0
 70
   688
 72
     0
 73
     0
 74
     5
  7

 75
    16
147
1.0
148
0.0
149
0.0
100
AcDbLayout
  1
Layout1
 70
     1
 71
     1
 10
0.0
 20
0.0
 11
12.0
 21
9.0
 12
0.0
 22
0.0
 32
0.0
 14
1.000000000000000E+20
 24
1.000000000000000E+20
 34
1.000000000000000E+20
 15
-1.000000000000000E+20
 25
-1.000000000000000E+20
 35
-1.000000000000000E+20
146
0.0
 13
0.0
 23
0.0
 33
0.0
 16
1.0
 26
0.0
 36
0.0
 17
0.0
 27
1.0
 37
0.0
 76
     0
330
1B
  0
LAYOUT
  5
26
102
{ACAD_XDICTIONARY
360
178
102
}
102
{ACAD_REACTORS
330
1A
102
}
330
1A
100
AcDbPlotSettings
  1

  2
none_device
  4

  6

 40
0.0
 41
0.0
 42
0.0
 43
0.0
 44
0.0
 45
0.0
 46
0.0
 47
0.0
 48
0.0
 49
0.0
140
0.0
141
0.0
142
1.0
143
1.0
 70
   688
 72
     0
 73
     0
 74
     5
  7

 75
    16
147
1.0
148
0.0
149
0.0
100
AcDbLayout
  1
Layout2
 70
     1
 71
     2
 10
0.0
 20
0.0
 11
0.0
 21
0.0
 12
0.0
 22
0.0
 32
0.0
 14
0.0
 24
0.0
 34
0.0
 15
0.0
 25
0.0
 35
0.0
146
0.0
 13
0.0
 23
0.0
 33
0.0
 16
1.0
 26
0.0
 36
0.0
 17
0.0
 27
1.0
 37
0.0
 76
     0
330
23
  0
LAYOUT
  5
22
102
{ACAD_XDICTIONARY
360
176
102
}
102
{ACAD_REACTORS
330
1A
102
}
330
1A
100
AcDbPlotSettings
  1

  2
none_device
  4

  6

 40
0.0
 41
0.0
 42
0.0
 43
0.0
 44
0.0
 45
0.0
 46
0.0
 47
0.0
 48
0.0
 49
0.0
140
0.0
141
0.0
142
1.0
143
1.0
 70
  1712
 72
     0
 73
     0
 74
     0
  7

 75
     0
147
1.0
148
0.0
149
0.0
100
AcDbLayout
  1
Model
 70
     1
 71
     0
 10
0.0
 20
0.0
 11
12.0
 21
9.0
 12
0.0
 22
0.0
 32
0.0
 14
-318.6442102992432
 24
-300.0000001441435
 34
0.0
 15
2425.973384138214
 25
2292.537341325203
 35
0.0
146
0.0
 13
0.0
 23
0.0
 33
0.0
 16
1.0
 26
0.0
 36
0.0
 17
0.0
 27
1.0
 37
0.0
 76
     0
330
1F
331
29
  0
MATERIAL
  5
167
102
{ACAD_XDICTIONARY
360
17C
102
}
102
{ACAD_REACTORS
330
165
102
}
330
165
100
AcDbMaterial
  1
ByBlock
  0
MATERIAL
  5
166
102
{ACAD_XDICTIONARY
360
17A
102
}
102
{ACAD_REACTORS
330
165
102
}
330
165
100
AcDbMaterial
  1
ByLayer
  0
MATERIAL
  5
168
102
{ACAD_XDICTIONARY
360
17E
102
}
102
{ACAD_REACTORS
330
165
102
}
330
165
100
AcDbMaterial
  1
Global
  0
MLINESTYLE
  5
18
102
{ACAD_REACTORS
330
17
102
}
330
17
100
AcDbMlineStyle
  2
STANDARD
 70
     0
  3

 62
   256
 51
90.0
 52
90.0
 71
     2
 49
0.5
 62
   256
  6
BYLAYER
 49
-0.5
 62
   256
  6
BYLAYER
  0
ACDBPLACEHOLDER
  5
F
102
{ACAD_REACTORS
330
E
102
}
330
E
  0
TABLESTYLE
  5
16A
102
{ACAD_XDICTIONARY
360
180
102
}
102
{ACAD_REACTORS
330
161
102
}
330
161
100
AcDbTableStyle
  3
Standard
 70
     0
 71
     0
 40
0.06
 41
0.06
280
     0
281
     0
  7
Standard
140
0.18
170
     2
 62
     0
 63
     7
283
     0
274
    -2
284
     1
 64
     0
275
    -2
285
     1
 65
     0
276
    -2
286
     1
 66
     0
277
    -2
287
     1
 67
     0
278
    -2
288
     1
 68
     0
279
    -2
289
     1
 69
     0
  7
Standard
140
0.25
170
     5
 62
     0
 63
     7
283
     0
274
    -2
284
     1
 64
     0
275
    -2
285
     1
 65
     0
276
    -2
286
     1
 66
     0
277
    -2
287
     1
 67
     0
278
    -2
288
     1
 68
     0
279
    -2
289
     1
 69
     0
  7
Standard
140
0.18
170
     5
 62
     0
 63
     7
283
     0
274
    -2
284
     1
 64
     0
275
    -2
285
     1
 65
     0
276
    -2
286
     1
 66
     0
277
    -2
287
     1
 67
     0
278
    -2
288
     1
 68
     0
279
    -2
289
     1
 69
     0
  0
VISUALSTYLE
  5
2F
102
{ACAD_REACTORS
330
2A
102
}
330
2A
100
AcDbVisualStyle
  2
2dWireframe
 70
     4
 71
     0
 72
     2
 73
     0
 90
        0
 40
-0.6
 41
-30.0
 62
     5
 63
     7
 74
     1
 91
        4
 64
     7
 65
   257
 75
     1
175
     1
 42
1.0
 92
        0
 66
   257
 43
1.0
 76
     1
 77
     6
 78
     2
 67
     7
 79
     5
170
     0
171
     0
290
     0
174
     0
 93
        1
 44
0.0
173
     0
291
     0
 45
0.0
1001
ACAD
1000
AcDbSavedByObjectVersion
1070
     0
1000
AcDbSavedByObjectVersion
1070
     0
  0
VISUALSTYLE
  5
31
102
{ACAD_REACTORS
330
2A
102
}
330
2A
100
AcDbVisualStyle
  2
3D Hidden
 70
     6
 71
     1
 72
     2
 73
     2
 90
        0
 40
-0.6
 41
-30.0
 62
     5
 63
     7
 74
     2
 91
        2
 64
     7
 65
   257
 75
     2
175
     1
 42
40.0
 92
        0
 66
   257
 43
1.0
 76
     1
 77
     6
 78
     2
 67
     7
 79
     3
170
     0
171
     0
290
     0
174
     0
 93
        1
 44
0.0
173
     0
291
     0
 45
0.0
1001
ACAD
1000
AcDbSavedByObjectVersion
1070
     0
1000
AcDbSavedByObjectVersion
1070
     0
  0
VISUALSTYLE
  5
30
102
{ACAD_REACTORS
330
2A
102
}
330
2A
100
AcDbVisualStyle
  2
3dWireframe
 70
     5
 71
     0
 72
     2
 73
     0
 90
        0
 40
-0.6
 41
-30.0
 62
     5
 63
     7
 74
     1
 91
        4
 64
     7
 65
   257
 75
     1
175
     1
 42
1.0
 92
        0
 66
   257
 43
1.0
 76
     1
 77
     6
 78
     2
 67
     7
 79
     5
170
     0
171
     0
290
     0
174
     0
 93
        1
 44
0.0
173
     0
291
     0
 45
0.0
1001
ACAD
1000
AcDbSavedByObjectVersion
1070
     0
1000
AcDbSavedByObjectVersion
1070
     0
  0
VISUALSTYLE
  5
32
102
{ACAD_REACTORS
330
2A
102
}
330
2A
100
AcDbVisualStyle
  2
Basic
 70
     7
 71
     1
 72
     0
 73
     1
 90
        0
 40
-0.6
 41
-30.0
 62
     5
 63
     7
 74
     0
 91
        4
 64
     7
 65
   257
 75
     1
175
     1
 42
1.0
 92
        8
 66
     7
 43
1.0
 76
     1
 77
     6
 78
     2
 67
     7
 79
     5
170
     0
171
     0
290
     0
174
     0
 93
        1
 44
0.0
173
     0
291
     1
 45
0.0
1001
ACAD
1000
AcDbSavedByObjectVersion
1070
     0
1000
AcDbSavedByObjectVersion
1070
     0
  0
VISUALSTYLE
  5
36
102
{ACAD_REACTORS
330
2A
102
}
330
2A
100
AcDbVisualStyle
  2
Brighten
 70
    12
 71
     2
 72
     2
 73
     0
 90
        0
 40
-0.6
 41
-30.0
 62
     5
 63
     7
 74
     1
 91
        4
 64
     7
 65
   257
 75
     1
175
     1
 42
1.0
 92
        8
 66
     7
 43
1.0
 76
     1
 77
     6
 78
     2
 67
     7
 79
     5
170
     0
171
     0
290
     0
174
     0
 93
        1
 44
50.0
173
     0
291
     1
 45
0.0
1001
ACAD
1000
AcDbSavedByObjectVersion
1070
     0
1000
AcDbSavedByObjectVersion
1070
     0
  0
VISUALSTYLE
  5
3A
102
{ACAD_REACTORS
330
2A
102
}
330
2A
100
AcDbVisualStyle
  2
ColorChange
 70
    16
 71
     2
 72
     2
 73
     3
 90
        0
 40
-0.6
 41
-30.0
 62
     5
 63
     8
 74
     1
 91
        4
 64
     7
 65
   257
 75
     1
175
     1
 42
1.0
 92
        8
 66
     8
 43
1.0
 76
     1
 77
     6
 78
     2
 67
     7
 79
     5
170
     0
171
     0
290
     0
174
     0
 93
        1
 44
0.0
173
     0
291
     1
 45
0.0
1001
ACAD
1000
AcDbSavedByObjectVersion
1070
     0
1000
AcDbSavedByObjectVersion
1070
     0
  0
VISUALSTYLE
  5
34
102
{ACAD_REACTORS
330
2A
102
}
330
2A
100
AcDbVisualStyle
  2
Conceptual
 70
     9
 71
     3
 72
     2
 73
     0
 90
        0
 40
-0.6
 41
-30.0
 62
     5
 63
     7
 74
     2
 91
        2
 64
     7
 65
   257
 75
     1
175
     1
 42
40.0
 92
        8
 66
     7
 43
1.0
 76
     1
 77
     6
 78
     2
 67
     7
 79
     3
170
     0
171
     0
290
     0
174
     0
 93
        1
 44
0.0
173
     0
291
     0
 45
0.0
1001
ACAD
1000
AcDbSavedByObjectVersion
1070
     0
1000
AcDbSavedByObjectVersion
1070
     0
  0
VISUALSTYLE
  5
35
102
{ACAD_REACTORS
330
2A
102
}
330
2A
100
AcDbVisualStyle
  2
Dim
 70
    11
 71
     2
 72
     2
 73
     0
 90
        0
 40
-0.6
 41
-30.0
 62
     5
 63
     7
 74
     1
 91
        4
 64
     7
 65
   257
 75
     1
175
     1
 42
1.0
 92
        8
 66
     7
 43
1.0
 76
     1
 77
     6
 78
     2
 67
     7
 79
     5
170
     0
171
     0
290
     0
174
     0
 93
        1
 44
-50.0
173
     0
291
     1
 45
0.0
1001
ACAD
1000
AcDbSavedByObjectVersion
1070
     0
1000
AcDbSavedByObjectVersion
1070
     0
  0
VISUALSTYLE
  5
39
102
{ACAD_REACTORS
330
2A
102
}
330
2A
100
AcDbVisualStyle
  2
Facepattern
 70
    15
 71
     2
 72
     2
 73
     0
 90
        0
 40
-0.6
 41
-30.0
 62
     5
 63
     7
 74
     1
 91
        4
 64
     7
 65
   257
 75
     1
175
     1
 42
1.0
 92
        8
 66
     7
 43
1.0
 76
     1
 77
     6
 78
     2
 67
     7
 79
     5
170
     0
171
     0
290
     0
174
     0
 93
        1
 44
0.0
173
     0
291
     1
 45
0.0
1001
ACAD
1000
AcDbSavedByObjectVersion
1070
     0
1000
AcDbSavedByObjectVersion
1070
     0
  0
VISUALSTYLE
  5
2B
102
{ACAD_REACTORS
330
2A
102
}
330
2A
100
AcDbVisualStyle
  2
Flat
 70
     0
 71
     2
 72
     1
 73
     1
 90
        2
 40
-0.6
 41
30.0
 62
     5
 63
     7
 74
     0
 91
        4
 64
     7
 65
   257
 75
     1
175
     1
 42
1.0
 92
        8
 66
     7
 43
1.0
 76
     1
 77
     6
 78
     2
 67
     7
 79
     5
170
     0
171
     0
290
     0
174
     0
 93
       13
 44
0.0
173
     0
291
     1
 45
0.0
1001
ACAD
1000
AcDbSavedByObjectVersion
1070
     0
1000
AcDbSavedByObjectVersion
1070
     0
  0
VISUALSTYLE
  5
2C
102
{ACAD_REACTORS
330
2A
102
}
330
2A
100
AcDbVisualStyle
  2
FlatWithEdges
 70
     1
 71
     2
 72
     1
 73
     1
 90
        2
 40
-0.6
 41
30.0
 62
     5
 63
     7
 74
     1
 91
        4
 64
     7
 65
   257
 75
     1
175
     1
 42
1.0
 92
        0
 66
   257
 43
1.0
 76
     1
 77
     6
 78
     2
 67
     7
 79
     5
170
     0
171
     0
290
     0
174
     0
 93
       13
 44
0.0
173
     0
291
     1
 45
0.0
1001
ACAD
1000
AcDbSavedByObjectVersion
1070
     0
1000
AcDbSavedByObjectVersion
1070
     0
  0
VISUALSTYLE
  5
2D
102
{ACAD_REACTORS
330
2A
102
}
330
2A
100
AcDbVisualStyle
  2
Gouraud
 70
     2
 71
     2
 72
     2
 73
     1
 90
        2
 40
-0.6
 41
30.0
 62
     5
 63
     7
 74
     0
 91
        4
 64
     7
 65
   257
 75
     1
175
     1
 42
1.0
 92
        0
 66
     7
 43
1.0
 76
     1
 77
     6
 78
     2
 67
     7
 79
     5
170
     0
171
     0
290
     0
174
     0
 93
       13
 44
0.0
173
     0
291
     1
 45
0.0
1001
ACAD
1000
AcDbSavedByObjectVersion
1070
     0
1000
AcDbSavedByObjectVersion
1070
     0
  0
VISUALSTYLE
  5
2E
102
{ACAD_REACTORS
330
2A
102
}
330
2A
100
AcDbVisualStyle
  2
GouraudWithEdges
 70
     3
 71
     2
 72
     2
 73
     1
 90
        2
 40
-0.6
 41
30.0
 62
     5
 63
     7
 74
     1
 91
        4
 64
     7
 65
   257
 75
     1
175
     1
 42
1.0
 92
        0
 66
   257
 43
1.0
 76
     1
 77
     6
 78
     2
 67
     7
 79
     5
170
     0
171
     0
290
     0
174
     0
 93
       13
 44
0.0
173
     0
291
     1
 45
0.0
1001
ACAD
1000
AcDbSavedByObjectVersion
1070
     0
1000
AcDbSavedByObjectVersion
1070
     0
  0
VISUALSTYLE
  5
38
102
{ACAD_REACTORS
330
2A
102
}
330
2A
100
AcDbVisualStyle
  2
Linepattern
 70
    14
 71
     2
 72
     2
 73
     0
 90
        0
 40
-0.6
 41
-30.0
 62
     5
 63
     7
 74
     1
 91
        4
 64
     7
 65
   257
 75
     7
175
     7
 42
1.0
 92
        8
 66
     7
 43
1.0
 76
     1
 77
     6
 78
     2
 67
     7
 79
     5
170
     0
171
     0
290
     0
174
     0
 93
        1
 44
0.0
173
     0
291
     1
 45
0.0
1001
ACAD
1000
AcDbSavedByObjectVersion
1070
     0
1000
AcDbSavedByObjectVersion
1070
     0
  0
VISUALSTYLE
  5
33
102
{ACAD_REACTORS
330
2A
102
}
330
2A
100
AcDbVisualStyle
  2
Realistic
 70
     8
 71
     2
 72
     2
 73
     0
 90
        0
 40
-0.6
 41
-30.0
 62
     5
 63
     7
 74
     1
 91
        0
 64
     7
 65
   257
 75
     1
175
     1
 42
1.0
 92
        8
 66
     8
 43
1.0
 76
     1
 77
     6
 78
     2
 67
     7
 79
     5
170
     0
171
     0
290
     0
174
     0
 93
       13
 44
0.0
173
     0
291
     0
 45
0.0
1001
ACAD
1000
AcDbSavedByObjectVersion
1070
     0
1000
AcDbSavedByObjectVersion
1070
     0
  0
VISUALSTYLE
  5
37
102
{ACAD_REACTORS
330
2A
102
}
330
2A
100
AcDbVisualStyle
  2
Thicken
 70
    13
 71
     2
 72
     2
 73
     0
 90
        0
 40
-0.6
 41
-30.0
 62
     5
 63
     7
 74
     1
 91
        4
 64
     7
 65
   257
 75
     1
175
     1
 42
1.0
 92
       12
 66
     7
 43
1.0
 76
     1
 77
     6
 78
     2
 67
     7
 79
     5
170
     0
171
     0
290
     0
174
     0
 93
        1
 44
0.0
173
     0
291
     1
 45
0.0
1001
ACAD
1000
AcDbSavedByObjectVersion
1070
     0
1000
AcDbSavedByObjectVersion
1070
     0
  0
DICTIONARYVAR
  5
16E
102
{ACAD_REACTORS
330
16D
102
}
330
16D
100
DictionaryVariables
280
     0
  1
STANDARD
  0
DICTIONARYVAR
  5
172
102
{ACAD_REACTORS
330
16D
102
}
330
16D
100
DictionaryVariables
280
     0
  1
2
  0
DICTIONARYVAR
  5
171
102
{ACAD_REACTORS
330
16D
102
}
330
16D
100
DictionaryVariables
280
     0
  1
1
  0
DICTIONARYVAR
  5
170
102
{ACAD_REACTORS
330
16D
102
}
330
16D
100
DictionaryVariables
280
     0
  1
0
  0
DICTIONARYVAR
  5
16F
102
{ACAD_REACTORS
330
16D
102
}
330
16D
100
DictionaryVariables
280
     0
  1
127
  0
DICTIONARY
  5
174
330
1E
100
AcDbDictionary
280
     1
281
     1
  3
ACAD_XREC_ROUNDTRIP
360
175
  0
DICTIONARY
  5
178
330
26
100
AcDbDictionary
280
     1
281
     1
  3
ACAD_XREC_ROUNDTRIP
360
179
  0
DICTIONARY
  5
176
330
22
100
AcDbDictionary
280
     1
281
     1
  3
ACAD_XREC_ROUNDTRIP
360
177
  0
DICTIONARY
  5
17C
330
167
100
AcDbDictionary
280
     1
281
     1
  3
ACAD_XREC_ROUNDTRIP
360
17D
  0
DICTIONARY
  5
17A
330
166
100
AcDbDictionary
280
     1
281
     1
  3
ACAD_XREC_ROUNDTRIP
360
17B
  0
DICTIONARY
  5
17E
330
168
100
AcDbDictionary
280
     1
281
     1
  3
ACAD_XREC_ROUNDTRIP
360
17F
  0
DICTIONARY
  5
180
330
16A
100
AcDbDictionary
280
     1
281
     1
  3
ACAD_XREC_ROUNDTRIP
360
181
  0
XRECORD
  5
175
102
{ACAD_REACTORS
330
174
102
}
330
174
100
AcDbXrecord
280
     1
102
SHADEPLOT
 70
     0
102
SHADEPLOTRESLEVEL
 70
     2
102
SHADEPLOTCUSTOMDPI
 70
   300
  0
XRECORD
  5
179
102
{ACAD_REACTORS
330
178
102
}
330
178
100
AcDbXrecord
280
     1
102
SHADEPLOT
 70
     0
102
SHADEPLOTRESLEVEL
 70
     2
102
SHADEPLOTCUSTOMDPI
 70
   300
  0
XRECORD
  5
177
102
{ACAD_REACTORS
330
176
102
}
330
176
100
AcDbXrecord
280
     1
102
SHADEPLOT
 70
     0
102
SHADEPLOTRESLEVEL
 70
     2
102
SHADEPLOTCUSTOMDPI
 70
   300
  0
XRECORD
  5
17D
102
{ACAD_REACTORS
330
17C
102
}
330
17C
100
AcDbXrecord
280
     1
102
MATERIAL
148
0.0
149
0.0
149
0.0
 93
        0
 94
       63
282
     0
 72
     1
 77
     1
171
     1
175
     1
179
     1
273
     0
  0
XRECORD
  5
17B
102
{ACAD_REACTORS
330
17A
102
}
330
17A
100
AcDbXrecord
280
     1
102
MATERIAL
148
0.0
149
0.0
149
0.0
 93
        0
 94
       63
282
     0
 72
     1
 77
     1
171
     1
175
     1
179
     1
273
     0
  0
XRECORD
  5
17F
102
{ACAD_REACTORS
330
17E
102
}
330
17E
100
AcDbXrecord
280
     1
102
MATERIAL
148
0.0
149
0.0
149
0.0
 93
        0
 94
       63
282
     0
 72
     1
 77
     1
171
     1
175
     1
179
     1
273
     0
  0
XRECORD
  5
181
102
{ACAD_REACTORS
330
180
102
}
330
180
100
AcDbXrecord
280
     1
102
ACAD_ROUNDTRIP_PRE2007_TABLESTYLE
 90
      512
 91
        0
  1

 92
      512
 93
        0
  2

 94
      512
 95
        0
  3

  0
ENDSEC
  0
EOF
